Song name
# A B C D E F G H I J K L M N O P Q R S T U V W X Y Z

Gotohells - Back In Fla tab

http://profile.myspace.com/index.cfm?fuseaction=user.viewprofile&friendID=100569832

(They are signed to Newspeak Records)

-----------------------------------------------------------------
Back in FLA - Gotohells
-----------------------------------------------------------------
Tabbed by: Bair
Email: bair_morritt@hotmail.com

Tuning: Standard

**This is a kick ass song from the album "All The Punk Fit To Print"

Intro:
e|------------------------------------------|
B|------------------------------------------|
G|------------99999999----------------------|
D|--99999999--99999999--7777777777777777----|
A|--99999999--77777777--7777777777777777----|
E|--77777777------------5555555555555555----|

Verse:
e|----------------------------------------------------------------|
B|----------------------------------------------------------------|
G|------------77777------------99999999--77777777-----------------|
D|--77777777--77777--77777777--99999999--77777777--77777777-(X2)--|
A|--77777777--55555--77777777--77777777--55555555--77777777-------|
E|--55555555---------55555555----------------------55555555-------|

Chorus:
e|-----------------------------------------------|
B|-----------------------------------------------|
G|--77777777------------99999999------------7----|
D|--77777777--77777777--99999999--77777777--7-7--|
A|--55555555--77777777--77777777--77777777--5-7--|
E|------------55555555------------55555555----5--|

e|------------------------------------------|
B|------------------------------------------|
G|--77777777----------------------99999999--|
D|--77777777--77777777--99999999--99999999--|
A|--55555555--77777777--99999999--77777777--|
E|------------55555555--77777777------------|

Fill:
e|---------------------|
B|---------------------|
G|---------------------|
D|--77777777-----------|
A|--77777777-----------|
E|--55555555-----------|

-Then Verse (Only once)
-Then Chorus

(Now up one octave)

Fill 2:
e|------------------------------------------|
B|------------------------------------------|
G|--10-10-10-10-10-10-10-10-----------------|
D|---8--8--8--8--8--8--8--8-----------------|
A|---8--8--8--8--8--8--8--8-----------------|
E|------------------------------------------|

Verse 2:
e|------------------------------------------|
B|------------------------------------------|
G|------------88888-------------------------|
D|--88888888--88888--88888888---------------|
A|--88888888--66666--88888888---------------|
E|--66666666---------66666666---------------|

e|------------------------------------------|
B|------------------------------------------|
G|--10-10-10-10-10-10-10-10--88888888-------|
D|---8--8--8--8--8--8--8--8--88888888-------|
A|---8--8--8--8--8--8--8--8--66666666-------|
E|------------------------------------------|

Outro:
e|------------------------------------------|
B|------------------------------------------|
G|---------8---------8---------8------------|
D|--88888--8--88888--8--88888--8--8---------|
A|--88888--6--88888--6--88888--6--8---------|
E|--66666-----66666-----66666-----6---------|
Tap to rate this tab
# A B C D E F G H I J K L M N O P Q R S T U V W X Y Z