Song name
# A B C D E F G H I J K L M N O P Q R S T U V W X Y Z

Gotthard - Hush tab

Ok everyone, I tried the best I could to pick it up in Standard Tuning.
Here we go.

    Intro(play 2 times, bend notes on g and D strings slightly)

e|---------------------|
b|---------------------|
g|-----7b-7b-----------|
D|-2---5b-5b--2-2------|
A|-2----------2-2------|
E|-0----------0-0------|

Continuation

e|------------------------------------------------------------------|
b|------------------------------------------------------------------|
g|--------7b-7b--------------------------------------7b-7b----------|
D|-2------5b-5b--2--2-2------------------------------5b-5b--2--2-2--|
A|-2-------------2--2-2-------------------------------------2--2-2--|
E|-0-0-0---------0--0-0-0-0-0--0-0-0--0-0-0--0-0-0----------0--0-0--|
     . .                . . .  . . .  . . .  . . . P.M.(Palm Muting)


e|--------------------------------------------------|
b|--------------------------------------------------|
g|--------------------------------------------------|
D|------------------------10--5--7------------------|
A|------------------------10--5--7------------------|
E|-0-0-0--0-0-0--0-0-0-----8--3--5------------------|
   . . .  . . .  . . .
P.M.
Tap to rate this tab
# A B C D E F G H I J K L M N O P Q R S T U V W X Y Z