Gotthard - Mountain Mama tab



                            Mountain Mama
                           by Gotthard


Intro   rythm guitar  (i dont have the lead)
e----------------------------------------------|
b----------------------------------------------|
g-----2-x-2----4b4-2-----------2-x-2-----2-----|
d-4~--2-x-2-4--4b4-2--4--2--4--2-x-2--4--2--4--|
a-4~--0-x-0-4------0--4--2--4--0-x-0--4--0--4--|
e-2~----x---2---------2--0--2----x----2-----2--|  X3




Verse

 P.M.----------   P.M.-------------------------|
e----------------------------------------------|
b----------------------------------------------|
g-----2-x-2----4b4-2-----------2-x-2-----2-----|
d-4~--2-x-2-4--4b4-2--4--2--4--2-x-2--4--2--4--|
a-4~--0-x-0-4------0--4--2--4--0-x-0--4--0--4--|
e-2~----x---2---------2--0--2----x----2-----2--|


Chorus

Crazy Mama...
e-------------|
b-------------|
g-------------|
d--2--------4-|
a--2--------4-|
e--0--------2-|



e------------------------------------------|
b------------------------------------------|
g-----2-x-2----4b4-2----------------2---4--|
d-4~--2-x-2-4--4b4-2--4--2----------2---4--|
a-4~--0-x-0-4------0--4--2----------0---2--|
e-2~----x---2---------2--0-----------------|


No, not again

e--------------------------------|
b--------------------------------|
g--4----------2------------------|
d--4----------2------------------|
a--2----------0------------------|
e--------------------------------|
Tap to rate this tab
 
# A B C D E F G H I J K L M N O P Q R S T U V W X Y Z