Song name
# A B C D E F G H I J K L M N O P Q R S T U V W X Y Z

Gotthard - All I Care For tab

 Hello everyone. This is Jerijimi, your tabber. I'm only 13, leave a comment please.

 --------0--------------------0---------------------3---------------0-------|
 -----------1--------------3-----3---3-----------1-----1--------3-----3---3-|
 ---------------0-------0----------0-----------0-------------0----0-----0---|
 -----2---------------------------------------------------------------------|
 --0---------------0h2------------------2h3--------------3-2----------------|
 ---------------------------------------------------------------------------|

 ------0------------------0----------------3-----------2--2---2h3h2---2-----|
 ---------1-------------3---3---3--------1----1--------3--3-------------3---|
 -------------0-------0-------0--------0---------0-----2--2----------2----2-|
 ----2-------------------------------------------------0--0-----------------|
 --0--------------0h2--------------2h3-------------0------------------------|
 ---------------------------------------------------------------------------|
Tap to rate this tab
 
# A B C D E F G H I J K L M N O P Q R S T U V W X Y Z