Song name
# A B C D E F G H I J K L M N O P Q R S T U V W X Y Z

Gotthard - And Then Goodbye tab

And Then Goodbye - Gotthard
Tuning - Half-Step down with the first string tuned down to match the 4th string (but an 
octave higher).

Intro/Verses:

Db|--0-------------------0-------------------------------0---------|---|
Bb|--3---3-----3-------3---3---3---------3-----3-------3---3---3---|---|
Gb|--0-----0-----0---------------0---------2-----2---------------2-|---|
Db|--0-------0-------0-----------------0-------------0-------------|---|
Ab|----------------------------------------------------------------|---|
Eb|--3-------------3---------3-----3-2-------2-----2---------2-----|---|

Db|-------0---------------0---------------0---------------0----------|
Bb|-----3---3---3-------3---3---3-------3---3---3--------------------|
Gb|---0-----------0---0-----------0---------------0-----7---7---7----|
Db|-----------------------------------0---------------7-----------7--|
Ab|-3---------3-----3---------3---------------------5---------5------|
Eb|---------------------------------3---------3----------------------|


Great song! Email me if you think I should fix anything (dakota.nelson4595@yahoo.com). 
I'm about 99% sure these are the notes that are played.I should be getting the chorus 
done soon.
Tap to rate this tab
# A B C D E F G H I J K L M N O P Q R S T U V W X Y Z