Song name
# A B C D E F G H I J K L M N O P Q R S T U V W X Y Z

Gotye - Somebody That I Used To Know tab

#----------------------------------PLEASE NOTE--------------------------------#
#This file is the author's own work and represents their interpretation of the#
#song. You may only use this file for private study, scholarship, or research.#
#-----------------------------------------------------------------------------#
#-- File created with Instab - http://www.pconline.com/~smcarey/instab.html --#
#-----------------------------------------------------------------------------#


Gotye - Somebody That I Used To Know

m = mute
P.M. =  palm mute


Standard Tuning




---------------|-----------|---------------|--|-------------------------------|
---------------|-----------|---------------|--|-------------------------------|
---------------|----x------|-x------x------|--|-------------------------------|
---------------|----x------|-x------x------|--|-------------------------------|
---------------|-5----3-3--|---5-5----3-3--|--|-------------------------------|
---------------|-----------|---------------|--|-------------------------------|
   G1 Intro P.M.

---------------------------|--------|-----------------------------------------|
---------------------------|-4--5---|-----------------------------------------|
---------------------------|--------|-----------------------------------------|
---------------------------|--------|-----------------------------------------|
---------------------------|--------|-----------------------------------------|
---------------------------|--------|-----------------------------------------|
   G2 Intro/Verse Fill P.M.   m  m

-------|-----------------|--|-------------------------------------------------|
-------|-----------------|--|-------------------------------------------------|
-------|-x------x--------|--|-------------------------------------------------|
-------|-x------x--------|--|-------------------------------------------------|
-------|---5-3----5-5-5--|--|-------------------------------------------------|
-------|-----------------|--|-------------------------------------------------|
   G1 Verse P.M.

------|--------------------------------------------------------|--------------|
------|--------------------------------------------------------|--------------|
------|------17---------------------------17-------------------|--------------|
------|-19-------19-17--------15--17-19-------19-17------------|--------------|
------|------------------17--------------------------17---17---|--------------|
----0-|--------------------------------------------------------|--------------|
    G2 Fill P.M.

------|-----------------------------|--|--------------------------------------|
------|-----------------------------|--|--------------------------------------|
------|-x------x------x------x------|--|--------------------------------------|
------|-x------x------x------x------|--|--------------------------------------|
------|---5-5----3-3----1-1----3-3--|--|--------------------------------------|
------|-----------------------------|--|--------------------------------------|
   G1 Chorus P.M.

------|-16---19---14--16---14-12--14-|--|-------------------------------------|
------|------------------------------|--|-------------------------------------|
------|------------------------------|--|-------------------------------------|
------|------------------------------|--|-------------------------------------|
------|------------------------------|--|-------------------------------------|
------|------------------------------|--|-------------------------------------|
Tap to rate this tab
# A B C D E F G H I J K L M N O P Q R S T U V W X Y Z