Song name
# A B C D E F G H I J K L M N O P Q R S T U V W X Y Z

Gotye - Somebody That I Used To Know tab

Thought the way I play this was easier/more accurate.

Gotye - Somebody that I used to know

Capo on 5, all frets are relative to the capo.

Intro/Background through whole song

      Am        G       Am        G

e|-----0--------2-------0--------2------|
B|-----1--------2-------1--------2------|
G|-----2--------0-------2--------0------|
D|-----2--------0-------2--------0------|
A|--0--0---0----2----0--0---0----2------|
E|-----------3--3--3----------3--3--3---|

Repeat as necessary.


Xylophone part

e|----------0-1-3-0---------------------||----------0-1-3-0---------------------|
B|------3-3---------3--1-1-0-0----------||------3-3---------3-------------------|
G|--0-0------------------------2-2-0----||--0-0----------------2-2-2h4--2-2-2h4-|
D|--------------------------------------||--------------------------------------|
A|--------------------------------------||--------------------------------------|
E|--------------------------------------||--------------------------------------|
Tap to rate this tab
# A B C D E F G H I J K L M N O P Q R S T U V W X Y Z