Song name
# A B C D E F G H I J K L M N O P Q R S T U V W X Y Z

Gotye - Somebody I Used To Know tab

This is how I play the song. It's not exactly the same as the original song, but it's 
great if it's the only instrument that is being played, like if you're playing an acoustic set.
This song is really simple to play. It's pretty much the same thing repeated over and 
over, but still sounds pretty cool. I won't post the lyrics or the amount of times 
everything is played because it's so repetitive.

The lines of all "x's" means to slap the strings.

Standard Tuning

Capo 5th Fret

Chords used
    Am    G     F
e|--0--|--3--|--1--|
B|--1--|--0--|--1--|
G|--2--|--0--|--2--|
D|--2--|--0--|--3--|
A|--0--|--2--|--3--|
E|--x--|--3--|--1--|

Intro
      Am         G          Am         G
e|-------x--|-------x--|-------x--|-------x--|
B|----1--x--|----0--x--|----1--x--|----0--x--|
G|----2--x--|----0--x--|----2--x--|----0--x--|
D|-------x--|-------x--|-------x--|-------x--|
A|--0----x--|-------x--|--0----x--|-------x--|
E|-------x--|--3----x--|-------x--|--3----x--|

Verses 1 & 2

      Am         G          Am         G
e|-------x--|-------x--|-------x--|-------x--|
B|----1--x--|----0--x--|----1--x--|----0--x--|
G|----2--x--|----0--x--|----2--x--|----0--x--|
D|-------x--|-------x--|-------x--|-------x--|
A|--0----x--|-------x--|--0----x--|-------x--|
E|-------x--|--3----x--|-------x--|--3----x--|

Chorus

     Am          G          F          G
e|-------x--|-------x--|-------x--|-------x--|
B|----1--x--|----0--x--|----1--x--|----0--x--|
G|----2--x--|----0--x--|----2--x--|----0--x--|
D|----2--x--|----0--x--|----3--x--|----0--x--|
A|--0----x--|-------x--|-------x--|-------x--|
E|-------x--|--3----x--|--1----x--|--3----x--|

Interlude

e|-------x--|-------x--|-------x--|-------x--|
B|----1--x--|----0--x--|----1--x--|----0--x--|
G|----2--x--|----0--x--|----2--x--|----0--x--|
D|----2--x--|----0--x--|----2--x--|----0--x--|
A|--0----x--|-------x--|--0----x--|-------x--|
E|-------x--|--3----x--|-------x--|--3----x--|


Verse 3

     Am          G          Am         G
e|-------x--|-------x--|-------x--|-------x--|
B|----1--x--|----0--x--|----1--x--|----0--x--|
G|----2--x--|----0--x--|----2--x--|----0--x--|
D|----2--x--|----0--x--|----2--x--|----0--x--|  Last 'G' of the verse is
A|--0----x--|-------x--|--0----x--|-------x--|  strummed.
E|-------x--|--3----x--|-------x--|--3----x--|

Chorus & Outro

     Am          G          F          G
e|-------x--|-------x--|-------x--|-------x--|
B|----1--x--|----0--x--|----1--x--|----0--x--|
G|----2--x--|----0--x--|----2--x--|----0--x--|
D|----2--x--|----0--x--|----3--x--|----0--x--|
A|--0----x--|-------x--|-------x--|-------x--|
E|-------x--|--3----x--|--1----x--|--3----x--|

End by strumming 'Am'
Tap to rate this tab
# A B C D E F G H I J K L M N O P Q R S T U V W X Y Z