Song name
# A B C D E F G H I J K L M N O P Q R S T U V W X Y Z

Government Issue - Asshole tab

Artist: Government Issue
Song: Asshole
Album: Legless Bull
Tabbed by personman92@gmail.com

Intro/Verse
e|-----------------------------------------------------------------|
B|-----------------------------------------------------------------|
G|-----------------------------------------------------------------|
D|-----------------------------------------------------------------|
A|---------------------------------8-8-8-8-7-7-7-7-----------------|
E|-4-5-5-5-4-5-5-5-7-8-8-8-7-8-8-8-----------------4-5-5-5-4-5-5-5-|

Chorus
e|-----------------------------------------------------------------|
B|-----------------------------------------------------------------|
G|-7-7-7-7-7-7-7-7-----4---5---------------------------------------|
D|-7-7-7-7-7-7-7-7-5---4---5---------------------------------------|
A|-5-5-5-5-5-5-5-5-5---2---3---------------------------------------|
E|-----------------3-----------------------------------------------| x3

e|-----------------------------------------------------------------|
B|-----------------------------------------------------------------|
G|-7-7-7-7-7-7-7-7-12-12-12-12-12-12-12-12-------------------------|
D|-7-7-7-7-7-7-7-7-12-12-12-12-12-12-12-12-------------------------|
A|-5-5-5-5-5-5-5-5-10-10-10-10-10-10-10-10-------------------------|
E|-----------------------------------------------------------------|
Tap to rate this tab
 
# A B C D E F G H I J K L M N O P Q R S T U V W X Y Z