Song name
# A B C D E F G H I J K L M N O P Q R S T U V W X Y Z

Government Issue - Reflection tab

Artist: Government Issue
Song: Reflection
Album: Joyride/The Fun Just Never Ends
Tabbed by PersonMan92@gmail.com

Verse
e|-----------------------------------------------------------------|
B|-----------------------------------------------------------------|
G|-7-7--7-7-7--7------------5-5------------------------------------|
D|-7-7--7-7-7--7-8-8--8-7-7-5-5------------------------------------|
A|-5-5--5-5-5--5-8-8--8-7-7-3-3------------------------------------|
E|---------------6-6--6-5-5----------------------------------------|

Chorus
e|-----------------------------------------------------------------|
B|-----------------------------------------------------------------|
G|-7-7--7-----5-5-7-7--7-------------------------------------------|
D|-7-7--7-7-7-5-5-7-7--7-3-3--3------------------------------------|
A|-5-5--5-7-7-3-3-5-5--5-3-3--3------------------------------------|
E|--------5-5------------1-1--1------------------------------------|
Tap to rate this tab
# A B C D E F G H I J K L M N O P Q R S T U V W X Y Z