Song name
# A B C D E F G H I J K L M N O P Q R S T U V W X Y Z

Government Issue - Plain To See tab

Intro						   Verse
E|-------------------------------------------------------|-------------------|
B|-------------------------------------------------------|-------------------|
G|--4--------------------------4-------------------------|--4-4-4-4-4-4-4----|
D|--4---2-2-2------------------4--2-2-2------------------|--4-4-4-4-4-4-4----|
A|--2----------3-3-3--5-3-5-3--2---------3-3-3--5-3-5-3--|--2-2-2-2-2-2-2----|
E|-------------------------------------------------------|-------------------|

				      Chorus	
E|-------------------------|--------|----------------------------------------|
B|-------------------------|--(x )--|----------------------------------(x )--|
G|-------------------------|--------|--6-6-6-6-6-6--7--4-4-------------------|
D|--2-2-2------------------|--------|--4-4-4-4-4-4--5--2-2---5--2-2----------|
A|---------3-3-3--5-3-5-3--|--------|------------------------5--2-2----------|
E|-------------------------|--------|------------------------3--0-0----------|

   Repeat Intro/Verse/Chorus

   End E ...

Tap to rate this tab
# A B C D E F G H I J K L M N O P Q R S T U V W X Y Z