Song name
# A B C D E F G H I J K L M N O P Q R S T U V W X Y Z

Government Issue - Teenager In A Box tab

Teenager in a Box
by Government Issue
from Strange Wine (1988)

Standard tuning (E,A,D,G,B,e)

Verse
e------------------------------------|
b------------------------------------|
g------------------------------------|
d------------------------------------|
a-4-5-5-5-4-5-5-5-8-5-5-4-5-5-5-5----|
e------------------------------------|

Chorus
e------------------------------------|
b------------------------------------|
g---------------10101010-101010------|
d-7--7--7-7-7-7-10101010-101010------|
a-7--7--7-7-7-7-8-8-8-8--8-8-8-------|
e-5--5--5-5-5-5----------------------|

e------------------------------------|
b------------------------------------|
g-5--5--5-5-5-5-7-7-7-7-7-7-7-7------|
d-5--5--5-5-5-5-7-7-7-7-7-7-7-7------|
a-3--3--3-3-3-3-5-5-5-5-5-5-5-5------|
e------------------------------------|

Tabbed by Chris Smith/PersonMan92

http://www.dischord.com/bands/governmentissue.shtml
Tap to rate this tab
 
# A B C D E F G H I J K L M N O P Q R S T U V W X Y Z