Song name
# A B C D E F G H I J K L M N O P Q R S T U V W X Y Z

Government Issue - Blending In tab

Artist: Government Issue
Song: Blending In
Album: Joyride
Tabbed by personman92@gmail.com

Intro
|----------------------------------------------------------------|
|----------------------------------------------------------------|
|----------------------------7-----------------------------------|
|-7-------------5------------7-----------------------------------|
|-7-------------5------------5-----------------------------------|
|-5-------------3------------------------------------------------|

Verse
|----------------------------------------------------------------|
|----------------------------------------------------------------|
|--------------7-7----------10-----------------------------------|
|-7-7--7-7-5-5-7-7-7-7--7-7-1010-10------------------------------|
|-7-7--7-7-5-5-5-5-7-7--7-7-8-10-10------------------------------|
|-5-5--5-5-3-3-----5-5--5-5---8--8-------------------------------|

Chorus
|----------------------------------------------------------------|
|----------------------------------------------------------------|
|----------------------------------------------------------------|
|-8------------5-5--5-7-7^-7-------------------------------------|
|-8------------5-5--5--------------------------------------------|
|-6------------3-3--3--------------------------------------------|
Tap to rate this tab
# A B C D E F G H I J K L M N O P Q R S T U V W X Y Z