Song name
# A B C D E F G H I J K L M N O P Q R S T U V W X Y Z

Government Issue - Rock N Roll Bullshit tab

Rock N' Roll Bullshit
Government issue


Intro
e-6------666-6------666-4-----444---6---6---6--|
B-6------666-8------888-6-----666-9-8-9-8-9-8--|
G-7------777-8------888-6-----666-8-8-8-8-8-8--|
D-8------888-8------888-6-----666-6-8-6-8-6-8--|
A-8------888-6------666-4-----444-6-6-6-6-6-6--|
E-6------666-6------666-4-----444---6---6---6--|


Verse
e-66---666-6-44-4---6--|
B-66---888-8-66-6-9-8--|
G-77---888-8-66-6-8-8--|
D-88---888-8-66-6-6-8--|
A-88---666-6-44-4-6-6--|
E-66---666-6-44-4---6--|


Chorus
e-------------------------------|
B-------------------9999--------|
G-7/888-7/888-7/888-8888-7/888--|
D-7/888-7/888-7/888-6666-7/888--|
A-5/666-5/666-5/666------5/666--|
E-------------------------------|
Tap to rate this tab
# A B C D E F G H I J K L M N O P Q R S T U V W X Y Z