Song name
# A B C D E F G H I J K L M N O P Q R S T U V W X Y Z

Government Issue - Time To Escape tab

----------------------------------------------------------------------------
                               "Time To Escape"
                               Government Issue
----------------------------------------------------------------------------
Yeah I heard this song from Tony Hawk's American Wasteland- the cover version by the 
Hot Snakes. I think it's pretty cool and easy. Standard tuning and distortion of course.

Intro / Verses:
e---------------------|
b---------------------|
g------9--9-----11-11-|
d--11--9--9--9--11-11-|
a--11--7--7--9--9--7--|
E--9---------7--------|

Chorus:
e--------------------------------------------|
b--------------------------------------------|
g--6-6-6-6-6-6-6-6-6-6-6-6-6-6-6-4-4-4-9-4-4-|
d--6-6-6-6-6-6-6-6-6-6-6-6-6-6-6-4-4-4-9-4-4-|
a--4-4-4-4-4-4-4-4-4-4-4-4-4-4-4-2-2-2-7-2-2-|
E--------------------------------------------|
     ............................

Bridge:
e-------------------------------------------------------|
b-------------------------------------------------------|
g--2-2-2-2-2-2-2-2-4-4-4-4-4-4-4-4----4--5--6--4--3--6--|
d--2-2-2-2-2-2-2-2-4-4-4-4-4-4-4-4----4--5--6--4--3--6--|
a--0-0-0-0-0-0-0-0-2-2-2-2-2-2-2-2----2--3--4--2--3--4--|
E-------------------------------------------------------|

Order:
Intro (play main riff 4 times)
Verse (play main riff 8 times)
Chorus(play chorus riff 4 times)
Verse (main riff 8 times)
Chorus (chorus riff 4 times)
Bridge (play bridge riff twice then main riff 8 times)
Chorus (chorus riff 4 times)

palm mute
.......

At the end, make a lot of noise by scraping the strings and whatnot then end on C#.
PM me if you have a problem or whatever.
-particle man
Tap to rate this tab
# A B C D E F G H I J K L M N O P Q R S T U V W X Y Z