Guitaretab - guitar tabs
Song name
# A B C D E F G H I J K L M N O P Q R S T U V W X Y Z

Govt Mule - Slow Down And Grill tab

Kingsford Charcoal BBQ 2008 Ad

"Slow Down and Grill"
   
Taken from: "Soulshine"   


Standard Tuning:



e--------------------------------------------------------------------|
B--------------------------------------------------------------------|
G--------------------------------------------------------------------|
D---------5--7b8--5--5h7--7b8--7b8--7b8r7--5--------------5--5--7b9--|
A---5--------------------------------------------7--5--7-------------|
E--------------------------------------------------------------------|
[ Tab from: http://www.guitaretab.com/g/govt-mule/111579.html ]
e---------------------------------------------7--8--9--10--12---------------|
B--x--8--10b11r10--10b11r10--8--10-----------------------------10b11r10--8--|
G--7----------------------------------9----8--------------------------------|
D--x------------------------------------------------------------------------|
A---------------------------------------------------------------------------|
E---------------------------------------------------------------------------|

e------------------------------------------(8)--10-----------------|
B-------8----10b11r10--8-------8--8--10b12-(8)-------10b11r10--8---|
G---7s9---9---------------7s9--------------(9)---------------------|
D------------------------------------------------------------------|
A------------------------------------------------------------------|
E------------------------------------------------------------------|

e------------------------------|
B-------8---8------8-----------|
G--7h9---------7h9----7--------|
D------------------------------|
A------------------------------|
E------------------------------|

b - bend

h - hammer

r - release

s - slide

x - mute

() - rake 

**tabbed by svsguy** http://youtube.com/user/svsguy

copyrightę 2008  Rdizzle Productions



Related for Slow Down And Grill tab