Song name
# A B C D E F G H I J K L M N O P Q R S T U V W X Y Z

Govt Mule - Larger Than Life tab

-------------------------------------------------------------------------------
		   LARGER THAN LIFE - Govt Mule
-------------------------------------------------------------------------------
Tabbed by: guitarfark
Email: stancsmith@gmail.com

Tuning: standard
Legend
------

 h  = hammer-on
 p  = pull-off
 b  = bend
 r  = bend release
 /  = slide up/down
<5> = natural harmonic
[5] = artifical harmonic
 ~  = vibrato
 tr = trill


Intro/Verse (Not sure about the rhythm)
e|---------------------------------------------------------------------------|
B|---------------------------------------------------------------------------|
G|----6--6--6--6/9-----5--5--5--5/9------4--4--6--7--7-----------------------|
D|---------------------------------------------------------------------------|
A|----4--4--4--4/7-----3--3--3--3/7------4--4--4--5--5-----------------------|
E|---------------------------------------------------------------------------|


Chorus
e|--------------|
B|--------------|
G|-2-2-4-5------|
D|-2-2-4-5------|
A|-0-0-2-3------|
E|----------3-2-|

e|--------7---------------7\6-|
B|--------8---------------8\7-|
G|--------7---------------7\6-|  x3
D|----------------------------|
A|----------------------------|
E|--0-0-0-----------0-0-0-----|
   it won't take long...

     G            A     Ab
e|---3------------5-----4-----|
B|---3------------5-----4-----|
G|---4------------6-----5-----|
D|---5------------7-----6-----|
A|---5------------7-----6-----|
E|---3------------5-----4-----|
   everybody...larger than...

On the second time through the Chorus play the A Chord in place of the G, after the solo use G again.

Solo:
e|--------------------------------------------------------------|
B|--------------------------------------------------------------|
G|-----2----2----2----2-----------------------------------------|
D|-----2----2----2----2-----------------------------------------|
A|-----0----0----0----0-----------------------------------------|
E|--3b----3b---3b---3b------------------------------------------|

Thats it! Questions/Comments just e-mail me. =)
Tap to rate this tab
 
# A B C D E F G H I J K L M N O P Q R S T U V W X Y Z