Song name
# A B C D E F G H I J K L M N O P Q R S T U V W X Y Z

Govt Mule - Babylon Turnpike tab

This is just the intro, i'm having trouble figuring out the rest if anyone can help.

e---------------------|------------------------------|---------------|---------3/5~~------|
B------x--------------|------------------------------|---------------|-1/3--6---------4\2-|
G------3-5-5b6-5-5b6--|--5-5b6-5-5b6-5-5b6-5-5b6r5-3-|-------------3-|--------------------|
D-3h5-----------------|------------------------------|--5------------|--------------------|
A---------------------|------------------------------|---------------|--------------------|
E---------------------|------------------------------|---------------|--------------------|

e--------|-----|-----|-----10-13-|
B--3~~~--|-----|-----|-----------|
G--------|-----|-----|-----------|
D--------|-----|-----|-----------|
A--------|-----|-----|-----------|
E--------|-----|-----|-----------|

e-10~~------------|--------------|---------------|----------------------------------|
B--------13-11-13-|---11-10-11---|--8/10---------|------------------13b15r13--------|
G-----------------|--------------|--------10-7---|---------------10----------11~~~--|
D-----------------|--------------|---------------|-------8-10/12--------------------|
A-----------------|--------------|---------------|--8/10----------------------------|
E-----------------|--------------|---------------|----------------------------------|
Tap to rate this tab
# A B C D E F G H I J K L M N O P Q R S T U V W X Y Z