Guitaretab - guitar tabs
Song name
# A B C D E F G H I J K L M N O P Q R S T U V W X Y Z

Govt Mule - Drivin Rain tab

-------------------------------------------------------------------------------
			     DRIVINí RAIN - Govít Mule - The Deep End Vol. 2
-------------------------------------------------------------------------------
Tabbed by:  Ross
Tuning:  Standard
Tone: Med-Heavy overdrive, bridge humbucker, heavy pick

Suggestions are always welcome; remember to rate it.  Thanks!


INTRO

G1 - 0:00
e|---------------------------------------------------------------------------|
B|---------------------------------------------------------------------------|
G|--------------------7----7------------------7------------9-----------------|
D|---9----------------7----7----9p7-----------7------------9-----------------|
A|---9-----7--h--9---------------------7h9--------9s11-----------------------|
E|---7-----------------------------------------------------------------------|


G1 - 0:04
e|---------------------------------------------------------------------------|
B|---------------------------------------------------------------------------|
G|---4----------------7----7------------------7------------9-----------------|
D|---4----------------7----7----9p7-----------7------------9-----------------|
A|---2-----4--s--9---------------------7h9--------9s11-----------------------|
E|---------------------------------------------------------------------------|


G1 - 0:08
e|---------------------------------------------------------------------------|
B|---------------------------------------------------------------------------|
G|---4----------------7----7------------------7------------9-----------------|
D|---4----------------7----7----9p7-----------7------------9-----------------|
A|---2-----4--s--9---------------------7h9--------9s11-----------------------|
E|---------------------------------------------------------------------------|
G2
e|---------------------------------------------------------------------------|
B|---------------------------------------------------------------------------|
G|---7b9--------------------------------7b-----7b-----7b---7b9r7p5-----------|
D|---------------------------------------------------------------------------|
A|---------------------------------------------------------------------------|
E|---------------------------------------------------------------------------|


G1 - 0:12
e|---------------------------------------------------------------------------|
B|---------------------------------------------------------------------------|
G|---4----------------7----7------------------7------------9-----------------|
D|---4----------------7----7----9p7-----------7------------9-----------------|
A|---2-----4--s--9---------------------7h9--------9s11-----------------------|
E|---------------------------------------------------------------------------|
G2
e|---------------------------------------------------------------------------|
B|---10b12-----r11------b12--------------------------------------------------|
G|---------------------------------------------------------------------------|
D|---------------------------------------------------------------------------|
A|---------------------------------------------------------------------------|
E|---------------------------------------------------------------------------|


VERSE 1 - Warren vocals

G1 - 0:17
e|---------------------------------------------------------------------------|
B|---------------------------------------------------------------------------|
G|---------------------------------------------------------------9-----7-----|
D|-----9------9------9------9------9------9------9------9--------9-----7-----|
A|-----9------9------9------9------9------9------9------9--------7-----5-----|
E|-----7------7------7------7------7------7------7------7--------------------|
G2
e|---------------------------------------------------------------------------|
B|---------------------------------------------------------------9-----7-----|
G|---------------------------------------------------------------9-----7-----|
D|---------------------------------------------------------------9-----7-----|
A|-----9------9------9------9------9------9------9------9--------------------|
E|-----7------7------7------7------7------7------7------7--------------------|



G1 - 0:21
e|---------------------------------------------------------------------------|
B|---------------------------------------------------------------------------|
G|---------------------------------------------------------------9-----7-----|
D|-----9------9------9------9------9------9------9------9--------9-----7-----|
A|-----9------9------9------9------9------9------9------9--------7-----5-----|
E|-----7------7------7------7------7------7------7------7--------------------|
G2
e|---------------------------------------------------------------------------|
B|---------------------------------------------------------------9-----7-----|
G|---------------------------------------------------------------9-----7-----|
D|---------------------------------------------------------------9-----7-----|
A|-----9------9------9------9------9------9------9------9--------------------|
E|-----7------7------7------7------7------7------7------7--------------------|



G1 - 0:25
e|---------------------------------------------------------------------------|
B|---------------------------------------------------------------------------|
G|---------------------------------------------------------------9-----7-----|
D|-----9------9------9------9------9------9------9------9--------9-----7-----|
A|-----9------9------9------9------9------9------9------9--------7-----5-----|
E|-----7------7------7------7------7------7------7------7--------------------|
G2
e|---------------------------------------------------------------------------|
B|---------------------------------------------------------------9-----7-----|
G|---------------------------------------------------------------9-----7-----|
D|---------------------------------------------------------------9-----7-----|
A|-----9------9------9------9------9------9------9------9--------------------|
E|-----7------7------7------7------7------7------7------7--------------------|



G1 - 0:29
e|---------------------------------------------------------------------------|
B|---------------------------------------------------------------------------|
G|---------------------------------------------------------------9-----7-----|
D|-----9------9------9------9------9------9------9------9--------9-----7-----|
A|-----9------9------9------9------9------9------9------9--------7-----5-----|
E|-----7------7------7------7------7------7------7------7--------------------|
G2
e|---------------------------------------------------------------------------|
B|---------------------------------------------------------------9-----7-----|
G|---------------------------------------------------------------9-----7-----|
D|---------------------------------------------------------------9-----7-----|
A|-----9------9------9------9------9------9------9------9--------------------|
E|-----7------7------7------7------7------7------7------7--------------------|



G1 - 0:33
e|---------------------------------------------------------------------------|
B|---------------------------------------------------------------------------|
G|---------------------------------------------------------------9-----7-----|
D|-----9------9------9------9------9------9------9------9--------9-----7-----|
A|-----9------9------9------9------9------9------9------9--------7-----5-----|
E|-----7------7------7------7------7------7------7------7--------------------|
G2
e|---------------------------------------------------------------------------|
B|---------------------------------------------------------------9-----7-----|
G|---------------------------------------------------------------9-----7-----|
D|-----------------------------------------------------------7s9----7--------|
A|-----9------9------9------9------9------9------9------9--------------------|
E|-----7------7------7------7------7------7------7------7--------------------|



G1 - 0:37
e|---------------------------------------------------------------------------|
B|---------------------------------------------------------------------------|
G|---------------------------------------------------------------9-----7-----|
D|-----9------9------9------9------9------9------9------9--------9-----7-----|
A|-----9------9------9------9------9------9------9------9--------7-----5-----|
E|-----7------7------7------7------7------7------7------7--------------------|
G2
e|---------------------------------------------------------------------------|
B|---------------------------------------------------------------9-----7-----|
G|---------------------------------------------------------------9-----7-----|
D|-----------------------------------------------------------7s9----7--------|
A|-----9------9------9------9------9------9------9------9--------------------|
E|-----7------7------7------7------7------7------7------7--------------------|



G1 - 0:41
e|---------------------------------------------------------------------------|
B|---------------------------------------------------------------------------|
G|---------------------------------------------------------------9-----7-----|
D|-----9------9------9------9------9------9------9------9--------9-----7-----|
A|-----9------9------9------9------9------9------9------9--------7-----5-----|
E|-----7------7------7------7------7------7------7------7--------------------|
G2
e|---------------------------------------------------------------------------|
B|---------------------------------------------------------------9-----7-----|
G|---------------------------------------------------------------9-----7-----|
D|-----------------------------------------------------------7s9----7--------|
A|-----9------9------9------9------9------9------9------9--------------------|
E|-----7------7------7------7------7------7------7------7--------------------|


G1 - 0:45
e|---------------------------------------------------------------------------|
B|---------------------------------------------------------------------------|
G|---------------------------------------------------------------9-----7-----|
D|-----9------9------9------9------9------9------9------9--------9-----7-----|
A|-----9------9------9------9------9------9------9------9--------7-----5-----|
E|-----7------7------7------7------7------7------7------7--------------------|
G2
e|---------------------------------------------------------------------------|
B|---------------------------------------------------------------9-----7-----|
G|---------------------------------------------------------------9-----7-----|
D|-----------------------------------------------------------7s9----7--------|
A|-----9------9------9------9------9------9------9------9--------------------|
E|-----7------7------7------7------7------7------7------7--------------------|


CHORUS

G1+G2 - 0:49
e|---------------------------------------------------------------------------|
B|---------------------------------------------------------------------------|
G|-------------------7-----------------------------------7-------------------|
D|-----9-------------7-------7--------x------9-----------7-------7-----------|
A|-----9-------------5-------7--------x------9-----------5-------7-----------|
E|-----7---------------------5--------x------7-------------------5-----------|


G1+G2 - 0:53    (in sync with the lyrics)
e|---------------------------------------------------------------------------|
B|-------10------10------10-------------------7------------------------------|
G|-----9b11-----b11----11r9-----7-------------7------------------------------|
D|------------------------------------9--------------9------9----------------|
A|---------------------------------------------------------(9)----------------|
E|---------------------------------------------------------(7)----------------|


G1+G2 - 0:57
e|---------------------------------------------------------------------------|
B|---------------------------------------------------------------------------|
G|---------------------------------------------------------------------------|
D|-------5--------5-------------------7--------7-----------------------------|
A|-------5--------5-------------------7--------7-----------------------------|
E|-------3--------3-----------------3s5--------5-----------------------------|



G1 - 1:01                               
e|---------------------------------------------------------------------------|
B|--------------9------------------------------------------------------------|
G|--------------9----------------------------7-----------7-------------------|
D|------9-------9----------------------------7-------9---7------9-----9------|
A|------7--------------------------------------------9----------9-----9------|
E|---------------------------------------------------------------------------|
G2
e|--------------------------------------------------------------------7\-----|
B|--------------9-----------------------------------------------------7\-----|
G|--------------9----------------------------7-----------7------9------------|
D|------9-------9----------------------------7-------9---7------9------------|
A|------7--------------------------------------------9-----------------------|
E|---------------------------------------------------------------------------|



G1 - 1:05
e|---------------------------------------------------------------------------|
B|---------------------------------------------------------------------------|
G|---------------------------------------------------------------9-----7-----|
D|-----9------9------9------9------9------9------9------9--------9-----7-----|
A|-----9------9------9------9------9------9------9------9--------7-----5-----|
E|-----7------7------7------7------7------7------7------7--------------------|
G2
e|---------------------------------------------------------------------x-----|
B|---------------------------------------------------------17b19---15--15----|
G|----------------------------------------------------------------------16s--|
D|---------------------------------------------------------------------------|
A|---------------------------------------------------------------------sweep-|
E|---------------------------------------------------------------------------|

[ Tab from: http://www.guitaretab.com/g/govt-mule/183471.html ]
G1 - 1:09
e|---------------------------------------------------------------------------|
B|---------------------------------------------------------------------------|
G|---------------------------------------------------------------9-----7-----|
D|-----9------9------9------9------9------9------9------9--------9-----7-----|
A|-----9------9------9------9------9------9------9------9--------7-----5-----|
E|-----7------7------7------7------7------7------7------7--------------------|
G2
e|-------------10------------------------------------------------------------|
B|------12p10-----12v------------(7)h10---p7---------------------------------|
G|-(s11)--------------------------------------9b11---9---7-------------------|
D|----------------------------------------------------------9v---------------|
A|---------------------------------------------------------------------------|
E|---------------------------------------------------------------------------|


VERSE 2 - James vocals

G1 - 1:13
e|---------------------------------------------------------------------------|
B|---------------------------------------------------------------------------|
G|---------------------------------------------------------------9-----7-----|
D|-----9------9------9------9------9------9------9------9--------9-----7-----|
A|-----9------9------9------9------9------9------9------9--------7-----5-----|
E|-----7------7------7------7------7------7------7------7--------------------|
G2
e|---------------------------------------------------------------------------|
B|---------------------------------------------------------------9-----7-----|
G|---------------------------------------------------------------9-----7-----|
D|---------------------------------------------------------------9-----7-----|
A|-----9------9------9------9------9------9------9------9--------------------|
E|-----7------7------7------7------7------7------7------7--------------------|



G1 - 1:17
e|---------------------------------------------------------------------------|
B|---------------------------------------------------------------------------|
G|---------------------------------------------------------------9-----7-----|
D|-----9------9------9------9------9------9------9------9--------9-----7-----|
A|-----9------9------9------9------9------9------9------9--------7-----5-----|
E|-----7------7------7------7------7------7------7------7--------------------|
G2
e|---------------------------------------------------------------------------|
B|---------------------------------------------------------------9-----7-----|
G|---------------------------------------------------------------9-----7-----|
D|---------------------------------------------------------------9-----7-----|
A|-----9------9------9------9------9------9------9------9--------------------|
E|-----7------7------7------7------7------7------7------7--------------------|




G1 - 1:25
e|---------------------------------------------------------------------------|
B|---------------------------------------------------------------9-----7-----|
G|---------------------------------------------------------------9-----7-----|
D|-----9------9------9------9------9------9------9------9--------9-----7-----|
A|-----9------9------9------9------9------9------9------9--------------------|
E|-----7------7------7------7------7------7------7------7--------------------|
G2
e|-----------7---------------------------------------------------------------|
B|-----------7------------------------------------------------10b12----------|
G|-----9b11-------(11)v--(11)v--(11)v--(11)v---9b11r9----7-------------------|
D|---------------------------------------------------------------------------|
A|---------------------------------------------------------------------------|
E|---------------------------------------------------------------------------|



G1 - 1:29
e|---------------------------------------------------------------------------|
B|---------------------------------------------------------------9-----7-----|
G|---------------------------------------------------------------9-----7-----|
D|-----9------9------9------9------9------9------9------9--------9-----7-----|
A|-----9------9------9------9------9------9------9------9--------------------|
E|-----7------7------7------7------7------7------7------7--------------------|
G2
e|---------------------------------------------------------------------------|
B|--------------------------9------7-----------------------------------------|
G|--------------------------9------7-----------------------------------------|
D|-------------------7s9-----------------------------------------------------|
A|---------------------------------------------------------------------------|
E|---------------------------------------------------------------------------|


G1 - 1:34
e|---------------------------------------------------------------------------|
B|---------------------------------------------------------------9-----7-----|
G|---------------------------------------------------------------9-----7-----|
D|-----9------9------9------9------9------9------9------9--------9-----7-----|
A|-----9------9------9------9------9------9------9------9--------------------|
E|-----7------7------7------7------7------7------7------7--------------------|
G2
e|---------------------------------------------------------------------------|
B|--------------------------9------7-----------------------------------------|
G|--------------------------9------7-----------------------------------------|
D|-------------------7s9-----------------------------------------------------|
A|---------------------------------------------------------------------------|
E|---------------------------------------------------------------------------|


G1 - 1:38
e|---------------------------------------------------------------------------|
B|---------------------------------------------------------------9-----7-----|
G|---------------------------------------------------------------9-----7-----|
D|-----9------9------9------9------9------9------9------9--------9-----7-----|
A|-----9------9------9------9------9------9------9------9--------------------|
E|-----7------7------7------7------7------7------7------7--------------------|
G2
e|---------------------------------------------------------------------------|
B|--------------------------9------7-----------------------------------------|
G|--------------------------9------7-----------------------------------------|
D|-------------------7s9-----------------------------------------------------|
A|---------------------------------------------------------------------------|
E|---------------------------------------------------------------------------|


G1 - 1:42
e|---------------------------------------------------------------------------|
B|---------------------------------------------------------------9-----7-----|
G|---------------------------------------------------------------9-----7-----|
D|-----9------9------9------9------9------9------9------9--------9-----7-----|
A|-----9------9------9------9------9------9------9------9--------------------|
E|-----7------7------7------7------7------7------7------7--------------------|
G2
e|---------------------------------12b14v----10------------------------------|
B|--------------------------9------7------------12v--------12v---------------|
G|--------------------------9------7-----------------------------------------|
D|-------------------7s9-----------------------------------------------------|
A|----------------------------------third guitar overdubs this lick----------|
E|---------------------------------------------------------------------------|




CHORUS

G1+G2 - 1:45
e|---------------------------------------------------------------------------|
B|---------------------------------------------------------------------------|
G|-------------------7-----------------------------------7-------------------|
D|-----9-------------7-------7--------x------9-----------7-------7-----------|
A|-----9-------------5-------7--------x------9-----------5-------7-----------|
E|-----7---------------------5--------x------7-------------------5-----------|


G1+G2 - 1:49    (in sync with the lyrics)
e|---------------------------------------------------------------------------|
B|-------10------10------10-------------------7------------------------------|
G|-----9b11-----b11----11r9-----7-------------7------------------------------|
D|------------------------------------9--------------9------9----------------|
A|---------------------------------------------------------(9)---------------|
E|---------------------------------------------------------(7)---------------|


G1+G2 - 1:54
e|---------------------------------------------------------------------------|
B|---------------------------------------------------------------------------|
G|---------------------------------------------------------------------------|
D|-------5--------5-------------------7--------7-----------------------------|
A|-------5--------5-------------------7--------7-----------------------------|
E|-------3--------3-----------------3s5--------5-----------------------------|



G1 - 1:57                                
e|---------------------------------------------------------------------------|
B|--------------9------------------------------------------------------------|
G|--------------9----------------------------7-----------7-------------------|
D|------9-------9----------------------------7-------9---7------9-----9------|
A|------7--------------------------------------------9----------9-----9------|
E|---------------------------------------------------------------------------|
G2                               
e|--------------------------------------------------------------------7\-----|
B|--------------9-----------------------------------------------------7\-----|
G|--------------9----------------------------7-----------7------9------------|
D|------9-------9----------------------------7-------9---7------9------------|
A|------7--------------------------------------------9-----------------------|
E|---------------------------------------------------------------------------|


SOLO

G2 - Verse rhythm

G1 - 2:03
e|---------------------------------------------------------------------------|
B|---------------------------------------------------------10b12-------------|
G|----------9b10--b10--b10--b10--b10--b10--b10--b10--r9p7--------------------|
D|---------------------------------------------------------------------------|
A|---------------------------------------------------------------------------|
E|---------------------------------------------------------------------------|

G1 - 2:07
e|----------------------------7----------------------------------------------|
B|----10b12--10--7---------7----10--7----------------------------------------|
G|-------------------9b10---------------9b10--9--7---------------------------|
D|-----------------------------------------------------9--7--9\--------------|
A|---------------------------------------------------------------------------|
E|---------------------------------------------------------------------------|

G1 - 2:10
e|---------12---x------------------------------------------------------------|
B|---------12-----x--------------12----12h15p12-----12-----------------------|
G|------------------x--------14--------------------------(14)----------------|
D|---------------------14----------------------------------------------------|
A|---------------------------------------------------------------------------|
E|---------------------------------------------------------------------------|

G1 - 2:13
e|------------------------------------------10-------------------------------|
B|----17b19--17b19---15vv----15s10---10--------12v----12vv-----10--7---------|
G|--------------------------------------11----------------------------9-b-10-|
D|---------------------------------------------------------------------------|
A|---------------------------------------------------------------(slow bend)-|
E|---------------------------------------------------------------------------|

G1 - 2:17
e|---------------------------------------------------------------------------|
B|-------------11-------11-------11--------11--------------------------------|
G|--(b10)----------b10------b10------b10---------b10---r9---p7---------------|
D|---------------------------------------------------------------------------|
A|---------------------------------------------------------------------------|
E|---------------------------------------------------------------------------|

G1 - 2:20
e|---------------------------------------------------------------------------|
B|---------------------------------15--17--17b19r17--15vv--------------------|
G|-(16b)19r16----16vv---------s16--------------------------------------------|
D|---------------------------------------------------------------------------|
A|-(pre-bend)----------------------------------------------------------------|
E|---------------------------------------------------------------------------|

G1 - 2:23
e|---------------------------------------------------------------------------|
B|-----19b22-------17--------------------------------------------------------|
G|----------------------19----19b21r19------16-------------------------------|
D|---------------------------------------------------------------------------|
A|---------------------------------------------------------------------------|
E|---------------------------------------------------------------------------|

G1 - 2:26
e|----14-------14------------------------------------------------------------|
B|----17b19----17b19-------17b19---17------12vvvvv---------------------------|
G|---------------------------------------------------------------------------|
D|---------------------------------------------------------------------------|
A|---------------------------------------------------------------------------|
E|---------------------------------------------------------------------------|


G1 - 2:33 (Lead in to next verse)
e|---------------------------------------------------------------------------|
B|---------------------------------------------------------------------------|
G|-----9b11----(11)v--(11)v--(11)v--(11)v---9b11r9----7----------------------|
D|---------------------------------------------------------------------------|
A|---------------------------------------------------------------------------|
E|---------------------------------------------------------------------------|

VERSE x2 - Same as other verses.

CHORUS x2 - Once with only bass and drums

VERSE X1 - Warren is wanking around, Iím not going to tab it out :)



| /  slide up
| \  slide down
| h  hammer-on
| p  pull-off
| ~  vibrato
| +  harmonic
| x  Mute note
===============================================================================

Related for Drivin Rain tab