Song name
# A B C D E F G H I J K L M N O P Q R S T U V W X Y Z

Govt Mule - Broken Promise Land tab

Gov’t Mule - Broken Promise Land

By Warren Haynes
Warren Solo song
transcribed by Seth Brewster

(play a few times with some variations)

e|--------------------------------------|
B|--------------------------------------|
G|--9--9-(h)-11-9----------5-----7------|
D|--9-------------11-------5-----7------|
A|-11-------------------/7----/9--------|
E|--------------------------------------|


e|---------------------------------------------------------------0-|
B|--------------------------------------------------------------0--|
G|--9--------------------9--11-/-13---11--9-----------5--------2---|
D|--9-----------9-(h)-11----11-/-13---11--9-11--------5-------2----|
A|-11--9-(h)-11-----------------------------11----/-7----7---0-----|
E|-----------------------------------------------------------------|


“Whats The Difference!”


e|-----------------------------------------------|
B|-----------------------------------------------|
G|---9--------------------4-4-4---2--------------|
D|---9--------------------4-4-4---2--------------|
A|--11--------------------6-6-6---4--------------|
E|-----------------------------------------------|


“There’s a boy on the corner”


e|-4---2-----4----------------------0---------------|
B|-4---2-----6----------------------0---------------|
G|-4---4-----6----------------------2---------------|
D|-6---4-----6----------------------2---------------|
A|-6---2-----4----------------------0---------------|
E|-4---2-----4--------------------------------------|


**That is most of the song. The rest of it just plays

on these same riffs and chords.**
Tap to rate this tab
# A B C D E F G H I J K L M N O P Q R S T U V W X Y Z