Govt Mule - Dont Step On The Grass Sam tab

main riff 
e|-------------------------------------|
b|-------------------------------------|
g|----------7~-9~----------------------|
d|------5-6-----------------------7-5--|
a|--5-7---------------5-5h7-5-----7-5--|
e|----------------5h7-------------5-3--|

riff before solo

e|-------------------------------------|
b|-------------------------------------|
g|-------------------------------------|
d|---------------7-5-------------------|
a|------5-5h7-5--7-5-------------------|
e|-5h7-----------5-3-------------------|

listen to the song should be correct if u know the solo to it please post a solo part
Tap to rate this tab
 
# A B C D E F G H I J K L M N O P Q R S T U V W X Y Z