Song name
# A B C D E F G H I J K L M N O P Q R S T U V W X Y Z

Govt Mule - Mr High And Mighty tab

-------------------------------------------------------------------------------
                             Mr High And Mighty - Govt Mule
-------------------------------------------------------------------------------
Tabbed by: Rooster
Email: thiemtab@gmail.com

Tuning:Eb

Riff 1
e|---------------------------------------------------------------------------|
B|-------3----------3--3----3--3-------------------------3-------------------|
G|--2----2----------0--0----2--2------2-----2-------2----2-------------------|
D|--2----0----------0--0----0--0------2-----2-------2----0-------------------|
A|--0---------------x--x--------------0-----0-------0------------------------|
E|------------------3--3----------------3p0------------------0-2p0-3p2p0-0---|

                Riff 2
e|------------|--------------------------------------------------------------|
B|------------|---3------------3---------------------------------------------|
G|--------2---|---2----2-------0---------2br4-0------------------------------|
D|--------2---|---0----2-------0---2-5-------------4-4--4-4----4--4---4------|
A|--3p2p0-0---|--------0-------x-------------------4-4--4-4----4--4---4------|
E|------------|----------------3-------------------0h2--2-2----0--2---2--0---|

  Riff 2 ending 1       Riff 2 ending 2
e|--------------------|------------------------0-----------------------------|
B|--3-----------------|------------------------0-----------------------------|
G|--0---------2br4-0--|------------------------1-----------------------------|
D|--0---2--5----------|--3------5br7--3----2-----------7-8-9-----------------|
A|--x-----------------|--3--0-3------------2---------------------------------|
E|--3-----------------|--1-----------------0---------------------------------|

   Pre solo Riff
e|---------------------------------------------------------------------------|
B|---------------------------------------------------------------------------|
G|---------------------------------------------------------------------------|
D|---------------------------------------------------------------------------|
A|-----7-6----5--4--3---0-0-0h2--------7-6----5--4--3------------------------|
E|--0------0--------------------3---0------0---------------------------------|


Sorry if the formatting is horrible but if you can get through it I think this
is pretty accurate tho likely not 100%.  Certainly more so than any other tab 
I've seen of this song.

The solos are most just in E minor, have fun with that cuz I ain't tabbing it out
but the whole song is to the best of my memory just various organizations of these
riffs.

i know a few more Mule tunes that are also lacking adequate tabs/chords, esp. on
deep end and High and Mighty so if you're interested let me know and I'll type
them up.
************************************

| /   slide up
| \   slide down
| h   hammer-on
| p   pull-off
| ~   vibrato
| +   harmonic
| x   Mute note
| b   Bend
| pb  Pre-bend
| br  Bend release
| pbr Pre-bend release
| brb Bend release bend

************************************
Tap to rate this tab
# A B C D E F G H I J K L M N O P Q R S T U V W X Y Z