Song name
# A B C D E F G H I J K L M N O P Q R S T U V W X Y Z

Govt Mule - Like Flies tab

Song: Like Flies
Artist: Gov't Mule
Album: High & Mighty
Year: 2006

Tabbed by: JBankAZ
Email: JBankAZ@yahoo.com

Tuning: (Low to high)C-G-C-G-C-C

Here is Like Flies from Mule's High & Mighty...I read an interview where Warren Haynes
that he used a Gibson RD with extremely heavy strings and detuned it to (Low to
which is an open C chord. He also used this tuning and guitar for the song Brighter 
All I have figured out so far is the intro - Use a lot of bottom heavy distortion for this one.
Got Mule?

Intro:

C|-----------------------------------------------------------|
C|-----------------------------------------------------------|
G|---------------------------------------0-------------------|
C|------------0------------0---------------3~~~--0-----------|
G|----------0---3~~~-----0---3~~~-----0-------------3p0------|
C|--0---0h3----------0h3----------0h3-------------------0----|

C|-----------------------------------------------------------|
C|-----------------------------------------------------------|
G|-------------------------0---------------------------------|
C|------------0--------------3~~~-------0-------0------------|
G|----------0---3~~~-----0------------0---3~~~-----3p0-------|
C|--0---0h3----------0h3----------0h3-------------------0----|

[Play 2x]
Tap to rate this tab
# A B C D E F G H I J K L M N O P Q R S T U V W X Y Z