Guitaretab - guitar tabs
Song name
# A B C D E F G H I J K L M N O P Q R S T U V W X Y Z

Govt Mule - Mr High And Mighty tab

Hayes tunes this song down one half step.

I think this is correct, but this is my first real attempt at tabbing a song, so sorry 
itís a bit off.

h-hammer on
p-pull off
b-bend
r-release bend
/-slide down
~-vibrato

Intro/Verse:

-------------------------------------------------------------|
-------------------------------------------------------------| Play
-----7-----9-9----7-7---------7--------7---------------------|  4x
-7---7-----9-9----7-7---7-7-7-7----7---7---------------------|
-7---5-----7-7----5-5---7-7-7-5----7---5---------0---3-3---0-|
-5----------------------5-5-5------5---------0h3---3-----3---|

Pre-chorus:

-------------------------------------------------------------|
-------------------------------------------------------------|
------7------9-----------------------------------------------|
-7----7------9-----5-7b(1/4)r7-5/--------------7---9----7----|
-7----5------7---5-----------------7-7-7-7-7-7-5---7----5----|
-5---------------------------------5-5-5-5-5-5---------------|

--------------------------------------------------------------------|
--------------------------------------------------------------------|
------7------9------------------------------------------------------|
-7----7------9-----5-7b(1/4)r7-5/--------------7-------5b(1/4)r5----|
-7----5------7---5-----------------7-7-7-7-7-7-5---5-7-----------7/-|
-5---------------------------------5-5-5-5-5-5----------------------|
[ Tab from: http://www.guitaretab.com/g/govt-mule/89804.html ]
ending 1
--------------------|
--------------------|
-----7---------9----|
-7---7---------9----|
-7---5---5--7--7----|
-5------------------|

ending 2
--------------------------|
-------------------10~~~~-|
-----7---------9----------|
-7---7---------9----------|
-7---5---5--7--7----------|
-5------------------------|


For the Chours repeat the verse 3x followed by the pre-chorus with ending 2.

Chorus ending

-------------------------------------------------------------|
-------------------------------------------------------------|
-----7-----9-9----7-7---------7--------7---------------------|
-7---7-----9-9----7-7---7-7-7-7----7---7---------------------|
-7---5-----7-7----5-5---7-7-7-5----7---5---------0---3-3---0-|
-5----------------------5-5-5------5---------0h3---3-----3---|

---------------------------------------------------------------------|
---------------------------------------------------------------------|
-----7-----9-9----7-7---------7--------7-----------------------------|
-7---7-----9-9----7-7---7-7-7-7----7---7-----------------------------|
-7---5-----7-7----5-5---7-7-7-5----7---5---------0---3p0---3p0---3p0-|
-5----------------------5-5-5------5---------0h3---3-----3-----3-----|

Then the solo, which I am not gonna even attempt.

After the solo the songs returns to the chorus.

After that the intro is played until the end of the song.


Alright that is my rough attempt at high and mighty. I hope you enjoy. have any 
email me at guitarfreak2575@aol.com, thank you.
Related for Mr High And Mighty tab