Song name
# A B C D E F G H I J K L M N O P Q R S T U V W X Y Z

Govt Mule - Time To Confess Live tab

Song: Time To Confess
Album: The Deepest End: Live In Concert
Artist: Gov't Mule

Here's the intro to this great song from the Mule. Its a bit reggae so the rhythm is not 
but I tried to tab it the way it sounds. Just play the chords with a reggae feel and 
sure to play the root notes. Enjoy!

|---9-9--x-x-9----9-9--x-x-9----7-7--x-x-7----5-5--x-x-5----|
|---9-9--x-x-9----9-9--x-x-9----7-7--x-x-7----5-5--x-x-5----|
|---9-9--x-x-9----9-9--x-x-9----8-8--x-x-8----6-6--x-x-6----|
|-------------------------------9-9------9----7-7------7----|
|-----------------------------------------------------------|
|-9-------------9-------------7-------------5---------------|


|---9-9--x-x-9-------------------|
|---9-9--x-x-9-------------------|
|---9-9--x-x-9-------9-/11-\9----|
|--------------------9-/11-\9----|
|---------------9h11-------------|
|-9------------------------------|
Tap to rate this tab
# A B C D E F G H I J K L M N O P Q R S T U V W X Y Z