Song name
# A B C D E F G H I J K L M N O P Q R S T U V W X Y Z

Govt Mule - Banks Of The Deep End tab

-------------------------------------------------------------------------------
                   BANKS OF THE DEEP END - Govt Mule
-------------------------------------------------------------------------------
Tabbed by: evanwiyams
Email: mfulbright@hotmail.com

Tuning:

e|-----4-(4)--------------------------4-(4)----------------------------------------------|
B|-----4-(4)--------------------------4-(4)----------------------------------------------|
G|-----4-(4)-------------4------------4-(4)----------------------------------------------|
D|-----------x-x-------4--------4s6---------x-x------------------------------------------|
A|-----------x-x--2-(2)---------------------x-x------------------------------------------|
E|---4-------x-x-----------2-(2)----4-------x-x------------------------------------------|
Tap to rate this tab
# A B C D E F G H I J K L M N O P Q R S T U V W X Y Z