Song name
# A B C D E F G H I J K L M N O P Q R S T U V W X Y Z

Gowan - When Theres Time For Love tab

-------------------------------------------------------------------------------
			     SONG NAME - Band Name
-------------------------------------------------------------------------------
Tabbed by: hillyca
Email:mccaffrey82@hotmail.com

Tuning: STANDARD EBGDAE

e|--5-5-5--X--X-X-X-X-X-X-X---5-5-5-X---3-3--2-2--5-5--X-X-X-X-X-X-X---5-5--3-3--2-2----|
B|--5-5-5--7--7-7-7-7-7-7-7---5-5-5-7---3-3--3-3--5-7--7-7-7-7-7-7-7---5-7--3-3--3-3----|
G|--6-6-6--7--8-8p7-8p7-8p7---6-6-6-7---4-4--2-2--6-7--8-8p7-8p7-8p7---6-7--4-4--2-2----|
D|--7-7-7--7--9-9p7-9p7-9p7---7-7-7-7---5-5--0-0--7-7--9-9p7-9p7-9p7---7-7--5-5--0-0----|
A|--7-7-7--X--X-X-X-X-X-X-----7-7-7-X---5-5--0-0--7-7--X-X-X-X-X-X-X---7-7--5-5--0-0----|
E|--5-5-5--X--X-X-X-X-X-X-----5-5-5-X---3-3--X-X--5-X--X-X-X-X-X-X-X---5-X--3-3--X-X----|

  A          D                        A             D              GX4   DX3          

  THE TIMING WRONG.......            YOU'RE OUT THERE EAGER TO FLY

e|------------------X-X-X-X-X-X-X-------------------------------------------------------|
B|------------------7-7-7-7-7-7-7-------------------------------------------------------|
G|------------------8-8p7-8p7-8p7-------------------------------------------------------|
D|------------------9-9p7-9p7-9p7-------------------------------------------------------|
A|------------------X-X-X-X-X-X-X-------------------------------------------------------|
E|--------------------------------------------------------------------------------------|

  A            D                  A                  D              GX4 DX3                

  I'LL SAY SO LONG......          BUT I'LL SURE BE WATCHING THE SKY

e|------------------X-X-X-X-X-X-X-------------------------------------------------------|
B|------------------7-7-7-7-7-7-7-------------------------------------------------------|
G|------------------8-8p7-8p7-8p7-------------------------------------------------------|
D|------------------9-9p7-9p7-9p7-------------------------------------------------------|
A|------------------X-X-X-X-X-X-X-------------------------------------------------------|
E|--------------------------------------------------------------------------------------|


  Em                       Bm                      G       D            A              

  WHEN YOUR WHEELS FINALLY TOUCH THE GROUND...... LOOK ME UP, I'LL BE AROUND

CHORUS
                D             Bm                    Em        G  Bm   A 

  WHEN THERE'S TIME FOR LOVE......   I WANT TO BE THERE........
     
                       D             Bm                    Em          G  Bm  A           

  WHEN YOU'VE GOT ALL NIGHT OR LOVE..... I'LL SEE YOU AND ME THERE

             Em   F#m        G       A                 G     D                

  WELL MAYBE OUR TIME ISN'T NOW.......... BUT IT WILL COME AROUND


  MUST BE NICE
  OUT THERE CHASING THE STARS
  I'VE TRIED ONCE OR TWICE
  FLEW REAL HIGH AND I FELL REAL HARD
  DO WHAT YOU'VE GOT TO DO
  MAKE EVERY SINGLE DREAM COME TRUE

  [REPEAT CHORUS]

      Em                                  Bm                           

  YES IT WILL COME AROUND.... YES IT WILL COME AROUND

                Em                         G         

  AND WHEN YOU THINK YOUR SOARING DAYS ARE DONE



  YOU'RE GOING TO FIND OUT

        A           D    

  HOW THEY'VE JUST BEGUN

  
  GUITAR INTRO

  WHEN YOUR WHEELS FINALLY TOUCH THE GROUND
  LOOK ME UP....   I WILL BE AROUND

  [REPEAT CHORUS]



| /  slide up
| \  slide down
| h  hammer-on
| p  pull-off
| ~  vibrato
| +  harmonic
| x  Mute note
===============================================================================
Tap to rate this tab
# A B C D E F G H I J K L M N O P Q R S T U V W X Y Z