Song name
# A B C D E F G H I J K L M N O P Q R S T U V W X Y Z

Grace Potter And The Nocturnals - Sweet Hands chords

Highlighted       Show chord diagrams
Tuning: EADGBE (Standard)

Main Riff
E------------------------|
B------------------------|
G--9--7--9---------------|
D--9--7--9---------------|
A--7--5--7---------------|
E--------------7--8--10--|

Other Part - Played before the Chorus between the Main Riff
E------------------------------------|
B------------------------------------|
G-------8-------8---------9-------8--|
D-----9-------9--------10-------9----|
A----9------9-------10--------9------|
E--7------7-------8---------7--------|
     B	   B	  C	    B

Chorus
E---------------------------------------|
B---------------------------------------|
G--9-9-----9-9-----7-7-----5-5-5-7-7-7--|
D--9-9-----9-9-----7-7-----5-5-5-7-7-7--|
A--7-7-----7-7-----5-5-----3-3-3-5-5-5--|
E---------------------------------------|
Tap to rate this tab
# A B C D E F G H I J K L M N O P Q R S T U V W X Y Z