Song name
# A B C D E F G H I J K L M N O P Q R S T U V W X Y Z

Grace Potter And The Nocturnals - The Lion The Beast The Beat tab

The Lion, The Beast, The Beat
Grace Potter and the Nocturnals
Tabbed by Rob Fletcher


Standard tuning, capo 2

All fret values are relative to the capo



There's no guitar during the first part of the song. The main riff starts at around the 
1:45 mark.
Also, the order that each part is played in is at the bottom of the page.



   Main Riff
e|-------------------------------------------------------------------------|
B|-------------------------------------------------------------------------|
G|-------------------------------------------------------------------------|
D|------------2-----------0h2h5--------2-----------0h2h5-------------------|
A|---------------------0------------------------0--------------------------|
E|------0--0-----0--0------------0--0-----0--0-----------------------------|



   Verse   (the lead riff is played in the background by a 2nd guitar)
e|-------------------------------------------------------------------------|
B|-------------------------------------------------------------------------|
G|-------------------------------------------------------------------------|
D|----2~~-------2~~---------5~----7~-----2~~-------------------------------|
A|----2~~-------2~~---------5~----7~-----2~~-------------------------------|
E|----0~~-------0~~---------3~----5~-----0~~-------------------------------|



   Chorus
   Guitar 1
e|-------------------------------------------------------------------------|
B|-------------------------------------------------------------------------|
G|--5~------7~------9--7---------------------------------------------------|
D|--5~------7~------------9--7~---5--7~---5--------------------------------|
A|--3~------5~-------------------------------7~~---------------------------|
E|-------------------------------------------------------------------------|

e|-------------------------------------------------------------------------|
B|-----------------------------------7~---8--------------------------------|
G|--5~------7~------9--7---------------------9~~---------------------------|
D|--5~------7~------------9--7~---9----------------------------------------|
A|--3~------5~-------------------------------------------------------------|
E|-------------------------------------------------------------------------|

e|-------------------------------------------------------------------------|
B|------------------5-5-5-5-7-7-7-7-8-8-8-8-10-10-10-10--------------------|
G|--5~------7~------5-5-5-5-7-7-7-7-9-9-9-9-11-11-11-11--------------------|
D|--5~------7~-------------------------------------------------------------|
A|--3~------5~-------------------------------------------------------------|
E|-------------------------------------------------------------------------|

e|-----------------|
B|-----------------|
G|--5~------7~-----|
D|--5~------7~-----|
A|--3~------5~-----|
E|-----------------|


   Chorus
   Guitar 2
e|-------------------------------------------------------------------------|
B|-------------------------------------------------------------------------|
G|--5~------7~-----------------------5~-----7~-----------------------------|
D|--5~------7~------2~---------------5~-----7~------2~---------------------|
A|--3~------5~------2~---------------3~-----5~------2~---------------------|
E|------------------0~------------------------------0~---------------------|

e|--------------------------------------------------|
B|--------------------------------------------------|
G|--5~------7~------2~---------------5~-----7~------|
D|--5~------7~------2~---------------5~-----7~------|
A|--3~------5~------0~---------------3~-----5~------|
E|--------------------------------------------------|


   Bridge
e|-------------------------------------------------------------------------|
B|-------------------------------------------------------------------------|
G|-------------------------------------------------------------------------|
D|-2-2~----2------2-2~----2------2---2---2---2---2-2-2-2-22222222----------|
A|-2-2~----2------2-2~----2------2---2---2---2---2-2-2-2-22222222----------|
E|-0-0~----0------0-0~----0------0---0---0---0---0-0-0-0-00000000----------|


   Outro
e|-------------------------------------------------------------------------|
B|-------------------------------------------------------------------------|
G|-------------------------------------------------------------------------|
D|-2-2~----2------2-2-----2-2-----2~~~-------------------------------------|
A|-2-2~----2------2-2-----2-2-----2~~~-------------------------------------|
E|-0-0~----0------0-0-----0-0-----0~~~-------------------------------------|




Main Riff x6
Verse x2
Chorus
Main Riff x2
Verse x2
Chorus
Main Riff x2
Bridge
Chorus
Main Riff x2
Outro
Tap to rate this tab
# A B C D E F G H I J K L M N O P Q R S T U V W X Y Z