Song name
# A B C D E F G H I J K L M N O P Q R S T U V W X Y Z

Grace Read - Cloak And Dagger tab

song here: http://www.youtube.com/watch?v=XrU9U8wwf24
http://www.gracereadmusic.com/

Half a step down

does this over and over
eb|-----------------------------------|
Bb|-----------------------------------|
Gb|---2--2---2---2----2---2---2---2---|
Db|--2--2---2---2----2---2---2---2----|
Ab|-0--0------------------------------|
Eb|-------3---3----1---1---0---3------|
chorus- strum it
eb|-0-----3--------0-------0----------|
Bb|-1-----0--------1-------0----------|
Gb|-2-----0--------2-------1----------|
Db|-2-----0--------3-------2----------|
Ab|-0-----2--------3-------2----------|
Eb|-------3--------0-------0----------|
Tap to rate this tab
# A B C D E F G H I J K L M N O P Q R S T U V W X Y Z