Song name
# A B C D E F G H I J K L M N O P Q R S T U V W X Y Z

Gracenote - When I Dream About You tab

FROM: http://www.savetubevideo.com/?v=HDvFt1ch7Es

When I Dream About You
By Gracenote

Drop D Tuning

INTRO:
E|------------------------------------------------------------|
B|-------------6-7-7/9-9-9-9-9/11-9-7-6-----------6-6-6h7p6---|
G|-6-6-6-6-6-8--------------------------6br-6-6-8-----------8-|
D|------------------------------------------------------------|
A|------------------------------------------------------------|
E|------------------------------------------------------------|

E|------------------------------------------------------------|
B|-------------6-7-7/9-9-9-9-9-6-8-6-8-8v---------------------|
G|-6-6-6-6-6-8-------------------------------66--6-6----------|
D|------------------------------------------------------------|
A|-------------------------------------------44--4-4----------|
E|------------------------------------------------------------|

VERSE:
E|----------------------------------------------------------|
B|----------------------------------------------------------|
G|-66666666---88888888---10-10-10-10-10-10-10-10---66666666-|
D|-66666666-------------------------------------------------| 2x
A|-44444444-------------------------------------------------|
E|------------66666666---8--8--8--8--8--8--8--8----44444444-|

PRE-CHORUS:
Gtr.2
E|-2----------------|-4-------------|-----------------|--------1-|
B|---3---3-----3----|---5---5-----5-|-----------------|-----1--1-|
G|-----4---4-----4/-|-----6---6-----|-----6-------6---|---3----2-|
D|-----------4------|-----------6---|---6---6---6---6-|-3--------|
A|------------------|---------------|-4-------3-------|----------|
E|------------------|---------------|-----------------|----------|

E|-2---------------------------|-------4--------4-4-4-4-|
B|---3---3-----3-----3---------|-----5---5---5--5-5-5-5-|
G|-----4---4-----4-----4---4-4-|---6-------6----6-6-6-6-|
D|-----------4-----4-----4-----|-6----------------------|
A|-----------------------------|------------------------|
E|-----------------------------|------------------------|

CHORUS:
Gtr.1
E|----------------------------------------------------------------------------------------|
B|----------------------------------------------------------------------------------------|
G|-10---6----8----6----6----3----6----6----8----10----6----8----6----6----3----6-----6----|
D|-8----4----6----6-x4-6-x4-3-x7-4----6-x7-6----8-----4----6----6-x4-6-x4-3-x7-4-----6----|
A|-8-x7-4-x7-6-x7-4----3----1----4-x7-4----6-x7-8--x7-4-x7-6-x7-4----3----1----4-x12-6-x6-|
E|-8----4----6-------------------4---------6----8-----4----6-------------------4-----6----|

Gtr.2
E|9----9----9----9-----9-----9-----9-----9-----8---8---8---8---9---9---8---8---9----9----9----9---|
B|------------------------------------------------------------------------------------------------|
G|--10---10---10---10-----11----11----11----11---8---8---8---8---6---6---6---6---10---10---10---10|
D|------------------------------------------------------------------------------------------------|
A|------------------------------------------------------------------------------------------------|
E|------------------------------------------------------------------------------------------------|

E|-----------------8---8---8---8--------------------|                    
B|-7---7---7---7--------------------9---9---9---9---|                    
G|---6---6---6---6---8---8---8---8----8---8---8---8-| Repeat Upper Tab   
D|--------------------------------------------------|        1x          
A|--------------------------------------------------|       Then         
E|--------------------------------------------------|                    

E|----------------------------------|
B|-7---7---7---7----9---9---9---9---|
G|---6---6---6---6----8---8---8---8-|
D|----------------------------------|
A|----------------------------------|
E|----------------------------------|


E|------------------------------------------------|
B|-------------6-7-7/9-9-9-9-9/11-9-7-6-----------|
G|-6-6-6-6-6-8--------------------------6-6-6-6-8-|
D|------------------------------------------------|
A|------------------------------------------------|
E|------------------------------------------------|

E|------------|
B|------------|
G|-66-66-66-6-|
D|-66-66-66-6-|
A|-44-44-44-4-|
E|------------|

Repeat Verse:

Pre-Chrous:
Gtr.1
E|----------------------------------------------------|
B|----------------------------------------------------|
G|----------------------------------------------------|
D|-4-4-444--5-5-555--6-6-333--7-7-777--4------6----6/-|
A|-4-4-444--5-5-555--0-0-333--0-0-000--4-x10--6-x8-6/-|
E|-4-4-444--5-5-555--3-3-333--4-4-444--4------6----6/-|

Repeat Chorus:

Before Bridge:
E|-------------|
B|-------------|
G|-----6-6-3---|
D|-4-6-6-6-3-4-|
A|-4-6-4-3-1-4-|
E|-4-6-------4-|


BRIDGE:
E|-----------------------------------------------------------------|
B|-----------------------------------------------------------------|
G|---------------------------------------------------------------8-|
D|-----------------------------1--/--------------------------------| 2x
A|-----4-4-----------4-4-------1--/------4-4-----------4-4-------6-|
E|-6-8-----8-6-8-6-8-----8-6-8-1--/--6-8-----8-6-8-6-8-----8-6-8---|

E|-------------------|
B|-------------------|
G|-----6-6-3---------|
D|-4-6-6-6-3-4~~--6/-|
A|-4-6-4-3-1-4~~--6/-|
E|-4-6-------4~~--6/-|

OUTRO:
E|---------------------------------------|
B|---------------------------------------|
G|---------------------------------------|
D|-8----6----4-----8----6----4----44-4---|
A|-8-x7-6-x7-4-x13-8-x7-6-x7-4-x7-44-4---|
E|-8----6----4-----8----6----4----44-4---|


****** SORI MAY MGA MALI PA YAN :))) **********
Tap to rate this tab
# A B C D E F G H I J K L M N O P Q R S T U V W X Y Z