Song name
# A B C D E F G H I J K L M N O P Q R S T U V W X Y Z

Gracenote - When I Dream About You chords

Highlighted       Show chord diagrams
When I Dream About You (Rock Version) - Gracenote

Tuning: (Half - Step Down)


Intro: D-A-Bm    G-A

E|---------------------------------| |----------------------------|
B|--7-8-10-10-12-------7-8-7-------| |----7-8-10-10-12------------|
G|---------------7/-7-9-----9-7----| |-----------------7/---------|
D|---------------------------------| |---------------------55-77--|
A|---------------------------------| |---------------------55-77--|
E|---------------------------------| |---------------------33-55--|

Verse:(D-A-Bm-G)
There was a time in my life
When I opened my eyes and there you were,
You were more than a dream,
I could reach out a touch you,
Boy that was long ago.

Refrain:
(G-A-D-C#m-Bm)
There are something's that I guess I'll never know,
(G-A)
When you love someone
You got to learn to let them go.


Chorus:
(Bm-G-A-D-C#m-Bm)
When I dream about you,
That's when everything's all right,
(G-D-A)
Your in my arms
Here next to me, forever.
(Bm-G-A-D-C#m-Bm)
When I dream about you,
Girl you never go away,
Just close my eyes
            G
Wait for my dreams
                A
Cause I still love, loving you.



Verse:(D-A-Bm-G)
How can I get you to see
That I'm falling apart
Since you've been gone,
I can never be sure
I could ever let go
Your love is much to strong,

Refrain:
(G-A-D-C#m-Bm)
There are something's that I guess I'll never know,
(G-A)
When you love someone
You got to learn to let them go.

REPEAT CHORUS:


Before Bridge: (F#m-G-Bm-E)2x

BRIDGE:
E|-------------------------------------------------------------------|
B|-------------------------------------------------------------------|
G|-------------------------------------------------------------------|
D|-----------------------------2----------------------------------2--| 
A|-----5-5--5------5-5---------2---------5-5---5-------5-5--------2--|
E|-5-7-----7-7-5-7-------5-7-5-0-----5-7------7-7-5-7------5-7-5--0--|

E|-------------------------------------------------------------------|
B|-------------------------------------------------------------------|
G|-------------------------------------------------------------------|
D|------------------------------9---------------------------------9--| 
A|-----5-5--5------5-5----------7---------5-5---5-------5-5-------7--|
E|-5-7-----7-7-5-7-------5-7-5-------5-7------7-7-5-7------5-7-5-----|

(G-A-D-C#m-Bm)
There are something's that I guess I'll never know,

(G-A)
When you love someone
You got to learn to let them go.


Chorus: (Bm-G-A-D-C#m-Bm)
When I dream about you,
That's when everything's all right,
Your in my arms
(G-D-A)
Here next to me, forever.
(Bm-G-A-D-C#m-Bm)
When I dream about you
Girl you never go away,
Just close my eyes
           G
Wait for my dreams,
                A
Cause I still love, loving you...

Outro: Bm-A-G -  G



Facebook:
https://www.facebook.com/patrick01pasague?ref=tn_tnmn
Tap to rate this tab
# A B C D E F G H I J K L M N O P Q R S T U V W X Y Z