Song name
# A B C D E F G H I J K L M N O P Q R S T U V W X Y Z

Grade - Bleeding Warm And Newly Dead tab

Artist: Grade
Song: Bleeding Warm and Newly Dead
Tabbed by: Chris Norkett
E-mail: c_norkett@hotmail.com

Tuning: Drop D Tuning (D A D G B E)

E-mail me at c_norkett@hotmail.com for request, questions and maybe some
comments. If you haven't heard this band, your missing out!

Symbol Guide

~ = hold the note for that many beats
% = hit note several times
* = part played by the other guitarist
/ = down stroke
 = upstroke
s = slide
p = pull off
PM = palm muted


============
RYTHM GUITAR
============
     
 Intro riff 0:00 - 0:02  

e--------------|
b--------------|
g--------------|
D-0~~-5~-4~~---|
A-0~~-5~-4~~---|
D-0~~-5~-4~~---|
  /   	 /	
Played acoustic, possibly a sound from a pedal, or he's got a really good head for his amp

 Riff A-1  0:03 - 0:20

e---------------------|    |------------|
b---------------------|    |------------|
g---------------------|    |------------|
D-0000-5-4--0~~-5-4~--| x3 |--0000-5-4--|
A-0000-5-4--0~~-5-4~--|    |--0000-5-4--|
D-0000-5-4--0~~-5-4~--|    |--0000-5-4--|
  ////  /  /    /             //// / 
  PM--                        PM--

 Riff B-1  0:20 - 0:30

e---------------------|    
b---------------------|    
g---------------------|    
D-5s-4p-0~--5s-4p-0~--| x4 
A-5s-4p-0~--5s-4p-0~--|    
D-5s-4p-0~--5s-4p-0~--|    
  /	    /

 Riff C-1  0:31 - 0:49

e---------------------------|    
b---------------------------|    
g---------------------------|    
D-0-5s-4p-0-5--0-5s-4p-0-5--| x7 
A-0-5s-4p-0-5--0-5s-4p-0-5--|    
D-0-5s-4p-0-5--0-5s-4p-0-5--|    
  / 	  /   /      / 

 Riff D-1  1:00 - 1:10

e-----------------------|    
b-----------------------|    
g-7---7---11s-12%--11%--|    
D-----------------------|  
A-----------------------|    
D-----------------------|    


 Riff E-1  1:10 - 1:48

e---------------------------|    |------------|
b-----***-----***-----------|    |------------|
g---------------------------|    |------------|
D-555-----444-----55555555--| x4 |--55555555--| x4 
A-555-----444-----55555555--|    |--55555555--|
D-555-----444-----55555555--|    |--55555555--|
  //      //      ////              ////

 Riff F-1  1:49 - 2:16

e-----------------|    
b-----------------|    
g-----------------|    
D-555555--444444--| 
A-555555--444444--|    
D-555555--444444--|   
  ///     ///


 End Riff  2:17 - 2:29

e---------------------|   
b------***-------***--|   
g---------------------|   
D-00-0------00-0------| x2
A-00-0------00-0------|   
D-00-0------00-0------|


===========
Lead guitar
===========

 Riff A-2  0:21 - 0:30

e------------------|
b------------------|
g-7%--9%--11%-12%--|
D------------------|
A------------------|
D------------------|
 Up down picking on each note several times, listen to song for number of notes


 Riff B-2  0:50 - 1:10

e--2h-3p-2-----|    |--2h-3p-2-5~--|    |--2h-3p-2-----|    |--2h-3p-2-5~--|    
b----------3~--|    |--------------|    |----------3~--|    |--------------|    
g--------------|    |--------------|    |--------------|    |--------------|    
D--------------|=x3 |--------------|=x1 |--------------|=x5 |--------------|=x1 
A--------------|    |--------------|    |--------------|    |--------------|    
D--------------|    |--------------|    |--------------|    |--------------|    

e--2h-3p-2-----|
b----------3~--|
g--------------|
D--------------|=x14
A--------------|
D--------------|


 Riff C-2  1:10 - 1:38

e-----3-3-3-----3-2------5%-------3-3-3------3-2-----5-5-5-7-7-7-5-5-5--------|
b-------------------3----------------------------3---------------------7-7-7--|
g-----------------------------------------------------------------------------|
D-***-------***---------------***--------***----------------------------------| x2
A-***-------***---------------***--------***----------------------------------|
D-***-------***---------------***--------***----------------------------------|


 Riff D-2  1:38 - 2:16

e--555-777-555------|    |----------|    |-555-777-555------|    |-----555----|
b--------------777--|    |-555------|    |-------------777--|    |-555--------|
g-------------------|    |-----777--|    |------------------|    |------------|
D-------------------|=x6 |----------|=x1 |------------------|=x3 |------------|=x1
A-------------------|    |----------|    |------------------|    |------------|
D-------------------|    |----------|    |------------------|    |------------|


 End Riff  2:17 - 2:29

e------555-----------|
b---------------777--|
g--------------------|
D-**-*-----**-*------|
A-**-*-----**-*------|
D-**-*-----**-*------|
Tap to rate this tab
# A B C D E F G H I J K L M N O P Q R S T U V W X Y Z