Song name
# A B C D E F G H I J K L M N O P Q R S T U V W X Y Z

Grady - Hammer In My Hand tab

Grady
Hammer in my Hand

(http://www.shadygrady.net)

1 whole step down, drop D


intro riff (various other places)
e|---------------------------3-------------|
B|-3--3--3--b5p3--3--3--3--b5-b5p3---------|
G|-----------------------------------------|
D|--0--0--0--------0--0--0-----------------|
A|-----------------------------------------|
E|-----------------------------------------|

verse riff
e|------------------------------------------3----------|
B|-3-3-3-3-3-3-3-3-3-3-3--3-3-3-3-3-3-3-3-b5-b5p3------|
G|-2-2-2-2-2-2-2-2-2-2-2--2-2-2-2-2-2-2-2--------------|
D|-0-0-0-0-0-0-0-0-0-0-0--0-0-0-0-0-0-0-0--------------|
A|-----3-3-3-2-2-2-1-1-1------3-3-3-2-2-2--------------|
E|-----------------------------------------------------|

chorus riff
e|------------------|
B|------------------|
G|------------------|repeat as necessary
D|-3-5\6/5-3-0------|
A|-3-5\6/5-3-0------|
E|-3-5\6/5-3-0------|

solo\interlude
e|--------------------------------------------------------|
B|--------------------------------------------------------|
G|--------------------------------------------------------|
D|-3-5\6/5-3/12--3-5\6/5-3-0--3-5\6/5-3/12--3-5\6/5-3-0---|
A|-3-5\6/5-3/12--3-5\6/5-3-0--3-5\6/5-3/12--3-5\6/5-3-0---|
E|-3-5\6/5-3/12--3-5\6/5-3-0--3-5\6/5-3/12--3-5\6/5-3-0---|

      (with slide)
e|-------------------------------------------------------------------------|
B|--------------------------------/15---------------------------------/15-|
G|10-12\13/12-10-7--10-12\13/12-10----10-12\13/12-10-7--10-12\13/12-10-----|
D|10-12\13/12-10-7--10-12\13/12-10----10-12\13/12-10-7--10-12\13/12-10-----|
A|-------------------------------------------------------------------------|
E|-------------------------------------------------------------------------|

e|-------------------------------------------------
B|-------------------------------------------------|
G|-------------------------------------------------|
D|-3h5-3h5-3h5-3h5-x-x-x--3h5-3h5-3h5-3h5-x-x-x----|
A|-3h5-3h5-3h5-3h5-x-x-x--3h5-3h5-3h5-3h5-x-x-x----|
E|-3h5-3h5-3h5-3h5-x-x-x--3h5-3h5-3h5-3h5-x-x-x----

the last part of the of the solo\interlude is also the same as the outro...

enjoi

sweet_inc
Tap to rate this tab
 
# A B C D E F G H I J K L M N O P Q R S T U V W X Y Z