Song name
# A B C D E F G H I J K L M N O P Q R S T U V W X Y Z

Graeme Revell - Idle Hands Theme tab

Graeme Revell, Idle Hands Theme.
 Tabbed by Myke, A_Violet_Fluid@hotmail.com.
  
IDLE HANDS SOUNDTRACK
IDLE HANDS THEME


Standard Tuning

Works best if you 'pinch' the 2 strings
With your thumb and pointer finger.

Riff 1:

|--5---0---7-8---5--0--4--0--|
|--5---0---7-8---5--0--4--0--|
|----------------------------|
|----------------------------|
|----------------------------|
|----------------------------|

Riff 2:

|--5---0---7-8---4---0---7-8--|
|--5---0---7-8---4---0---7-8--|
|-----------------------------|
|-----------------------------|
|-----------------------------|
|-----------------------------|
 
:: Ultimate Guitar Archive :: 
http://www.ultimate-guitar.com 



Tap to rate this tab
# A B C D E F G H I J K L M N O P Q R S T U V W X Y Z