Song name
# A B C D E F G H I J K L M N O P Q R S T U V W X Y Z

Graffiti6 - Stare Into The Sun tab

Graffiti6 - Stare Into The Sun.

Made by: Squizz1990     

Tuning: standard



verse
-------------------------------------------------------------|
-------------------------------------------------------------|
-------------------------------------------------------------|
-------------------------------------------------------------|
---4---4---7---7---3---3----9----9---------------------------| 8x
-5---5---8---8---2---2---10---10-----------------------------| 



verse before chorus
-------------------------------------------------------------|
-------------------------------------------------------------|
-------------------------------------------------------------|
-------------------------------------------------------------|
---4---4---7---7---3---3----9----9---7---7---7---7---7---7---| 1x
-5---5---8---8---2---2---10---10---8---8---8---8---8---8---8-|




chorus 1st part
-------------------------------------------------------------------------------|
-------------------------------------------------------------------------------|
-------------------------------------------------------------------------------|
-------------------------------------------------------------------------------|
---4---4---7---7---3---3----9----9----12----12---7---7----12----12----11----11-| 1x
-5---5---8---8---2---2---10---10---13----13----8---8---13----13----12----12----|



chorus 2nd part
-----------------------------------|
-----------------------------------|
-----------------------------------|
-----------------------------------|
---4---4---7---7---3---3----9----9-|
-5---5---8---8---2---2---10---10---|




chorus 3rd part.
----------------------------------------------------------------------------------------|
----------------------------------------------------------------------------------------|
----------------------------------------------------------------------------------------|
----------------------------------------------------------------------------------------|
---12----12----12----12----12----12----12----12----9----9----9----9----9----9----9----9-|
13----13----13----13----13----13----13----13----10---10---10---10---10---10---10---10---|


that's it.
Tap to rate this tab
# A B C D E F G H I J K L M N O P Q R S T U V W X Y Z