Song name
# A B C D E F G H I J K L M N O P Q R S T U V W X Y Z

Graham Colton - Best Thing tab

This is the whole song except for the solo because it's too hard for me to work out
at the moment! This tab is perfect so rate it high! But if you don't like it tab it
yourself! Or kindly email me with any corrections! x_20-marc-06_x@hotmail.co.uk Thnx.

This is the song order:

Intro        x4
Verse        x4
Verse [2]    x4
Pre Chorus   x4
Chorus       x2
Verse        x4
Verse [2]    x4
Pre Chorus   x4
Chorus       x2
Solo Rhythm  x1
Verse [3]    x4
Verse [2]    x4
Pre Chorus   x4
Chorus       x2
Outro        x1


Intro:

E||--------------------------|--------------------------|
B||--------------------------|--------------------------|
G||--------------------------|--------------------------|
D||--2--2-----------------2--|--L--2-----------------2--|
A||--2--2-----0--1--0-----2--|--L--2-----0--1--0-----2--|
D||--2--2--5-----------5--2--|--L--2--5-----------5--2--|


E||--------------------------|--------------------------|
B||--------------------------|--------------------------|
G||--------------------------|--------------------------|
D||--L--2-----------------5--|--L--5--5--7--L--7--7-----|
A||--L--2-----0--1--0-----5--|--L--5--5--7--L--7--7-----|
E||--L--2--5-----------5--5--|--L--5--5--7--L--7--7-----|

Verse:

E||--------------------------|--------------------------|
B||--------------------------|--------------------------|
G||--------------------------|--------------------------|
D||--2--2-----------------2--|--------------------------|
A||--2--2-----0--1--0-----2--|--------------------------|
D||--2--2--5-----------5--2--|--------------------------|

Verse [2]:

E||--------------------------|--------------------------|
B||--------------------------|--------------------------|
G||--------------------------|--------------------------|
D||--L--2-----------------2--|--L--X--X--X--X--X--X--2--|
A||--L--2-----0--1--0-----2--|--L--X--X--X--X--X--X--2--|
D||--L--2--5-----------5--2--|--L--X--X--X--X--X--X--2--|

Pre Chorus:

E||--------------------------|
B||--------------------------|
G||--------------------------|
D||--5--7--2-----------------|
A||--5--7--2-----------------|
D||--5--7--2-----------------|

Chorus:

E||--------------------------|--------------------------|
B||--------------------------|--------------------------|
G||--------------------------|--------------------------|
D||--2--2-----------------2--|--L--2-----------------2--|
A||--2--2-----0--1--0-----2--|--L--2-----0--1--0-----2--|
D||--2--2--5-----------5--2--|--L--2--5-----------5--2--|

E||--------------------------|--------------------------|
B||--------------------------|--------------------------|
G||--------------------------|--------------------------|
D||--L--2-----------------5--|--L--5--5--7--L--7--7-----|
A||--L--2-----0--1--0-----5--|--L--5--5--7--L--7--7-----|
E||--L--2--5-----------5--5--|--L--5--5--7--L--7--7-----|


Solo Rythm: (Solo will be coming Shortly!)

E||--------------------------|--------------------------|
B||--------------------------|--------------------------|
G||--------------------------|--------------------------|
D||--------------------2-----|--------------------2-----|
A||-----------0--2--5--------|-----------0--2--5--------|
E||--2--2--5--------------2--|--L--2--5--------------2--|

E||--------------------------|--------------------------|
B||--------------------------|--------------------------|
G||--------------------------|--------------------------|
D||--------------------2--5--|--L--5--5--7--L--7--7-----|
A||-----------0--2--5-----5--|--L--5--5--7--L--7--7-----|
E||--L--2--5--------------5--|--L--5--5--7--L--7--7--2--|

E||--------------------------|--------------------------|
B||--------------------------|--------------------------|
G||--------------------------|--------------------------|
D||--------------------2-----|--------------------2-----|
A||-----------0--2--5--------|-----------0--2--5--------|
E||--L--2--5--------------2--|--L--2--5--------------2--|

E||--------------------------|--------------------------|
B||--------------------------|--------------------------|
G||--------------------------|--------------------------|
D||--------------------2--5--|--L--5--5--7--L--7--7-----|
A||-----------0--2--5-----5--|--L--5--5--7--L--7--7-----|
E||--L--2--5--------------5--|--L--5--5--7--L--7--7--5--|

E||--------------------------|--------------------------|
B||--------------------------|--------------------------|
G||--------------------------|--------------------------|
D||-----------------3--5-----|-----------------3--5-----|
A||--------1--3--5-----------|--------1--3--5-----------|
E||--L--5-----------------5--|--L--5----------------5---|

E||--------------------------|--------------------------|
B||--------------------------|--------------------------|
G||-----------------------3--|--L--3--3--5--L--5--5-----|
D||-----------------3--5--3--|--L--3--3--5--L--5--5-----|
A||--------1--3--5--------1--|--L--1--1--3--L--3--3-----|
E||--L--5--------------------|-----------------------7--|

E||--------------------------|--------------------------|
B||--------------------------|--------------------------|
G||--------------------------|--------------------------|
D||-----------------5--7-----|-----------------5--7-----|
A||--------3--5--7-----------|--------3--5--7-----------|
E||--L--7-----------------7--|--L--7----------------7---|

E||--------------------------|--------------------------|
B||--------------------------|--------------------------|
G||-----------------------5--|--L--5--5--7--L--7--7-----|
D||-----------------5--7--5--|--L--5--5--7--L--7--7-----|
A||--------3--5--7--------3--|--L--3--3--5--L--5--5-----|
E||--L--7--------------------|--------------------------|

E||--------------------------|--------------------------|
B||--------------------------|--------------------------|
G||--------------------------|--------------------------|
D||--------------------2-----|--------------------2-----|
A||-----------0--2--5--------|-----------0--2--5--------|
E||--2--2--5--------------2--|--L--2--5--------------2--|

E||--------------------------|--------------------------|
B||--------------------------|--------------------------|
G||--------------------------|--------------------------|
D||--------------------2--5--|--L--5--5--7--L--7--7-----|
A||-----------0--2--5-----5--|--L--5--5--7--L--7--7-----|
E||--L--2--5--------------5--|--L--5--5--7--L--7--7-----|

E||--------------------------|--------------------------|
B||--------------------------|--------------------------|
G||--------------------------|--------------------------|
D||--------------------------|--------------------------|
A||-----------0--1--0--------|--------------------------|
E||--L--2--5-----------5--2--|--------------------------|

Verse [3]:

    PM - - - - - - - - - - |
E||--------------------------|--------------------------|
B||--------------------------|--------------------------|
G||--------------------------|--------------------------|
D||--------------------------|--------------------------|
A||-----------0--1--0--------|--------------------------|
D||--2--2--5-----------5--2--|--------------------------|


Outro:

E||--------------------------|--------------------------|
B||--------------------------|--------------------------|
G||--------------------------|--------------------------|
D||--2--2-----------------2--|--L--2-----------------2--|
A||--2--2-----0--1--0-----2--|--L--2-----0--1--0-----2--|
D||--2--2--5-----------5--2--|--L--2--5-----------5--2--|

E||--------------------------|--------------------------|
B||--------------------------|--------------------------|
G||--------------------------|--------------------------|
D||--L--2-----------------5--|--L--5--5--7--L--7--7-----|
A||--L--2-----0--1--0-----5--|--L--5--5--7--L--7--7-----|
E||--L--2--5-----------5--5--|--L--5--5--7--L--7--7-----|

E||--------------------------|--------------------------|
B||--------------------------|--------------------------|
G||--------------------------|--------------------------|
D||--2--2-----------------2--|--L--2-----------------2--|
A||--2--2-----0--1--0-----2--|--L--2-----0--1--0-----2--|
D||--2--2--5-----------5--2--|--L--2--5-----------5--2--|

E||--------------------------|--------------------------|
B||--------------------------|--------------------------|
G||--------------------------|--------------------------|
D||--L--2--------------------|--5--5--------7--7--------|
A||--L--2-----0--1--0--------|--5--5--------7--7--------|
E||--L--2--5-----------5-----|--5--5--------7--7--------|

E||--------------------------|
B||--------------------------|
G||--------------------------|
D||--2-----------------------|
A||--2-----------------------|
D||--2-----------------------|

Hope you like it!
Tap to rate this tab
# A B C D E F G H I J K L M N O P Q R S T U V W X Y Z