Song name
# A B C D E F G H I J K L M N O P Q R S T U V W X Y Z

Graham Colton - Let It Go tab

Let It Go
Artist: Graham Colton
Album: Here Right Now (2007)


Here's a tab for Let it Go off of Graham Colton's 2007 album Here Right Now. Its a 
couple years old, but its a great song and is really easy to play.

Tabbed by: Griff5516
Tuning: Standard (Capo 4)



Intro/Verse:

e |--3--3--3--3---|
B |--3--3--3--3---|
G |--0--0--0--0---| x3
D |--0--2--x--x---|
A |--x--0--2--3---|
E |--3------------|

e |--3--3---|
B |--3--3---|
G |--0--2---| x1
D |--2--0---|
A |--0--x---|
E |-----2---|

Chorus:

e |--3--3--3--3---|
B |--3--3--3--3---|
G |--0--2--0--0---| x2
D |--0--0--x--x---|
A |--x--x--2--3---|
E |--3--2---------|

Bridge:

e |--3--3--3--3--3--3---|
B |--3--3--3--3--3--3---|
G |--0--2--0--0--0--0---| x1
D |--2--0--x--0--0--2---|
A |--2--x--2--x--x--2---|
E |--0--2-----3--2--0---|

e |--3--3--3---|
B |--3--3--3---|
G |--0--2--0---| x1
D |--2--0--x---|
A |--2--x--2---|
E |--0--2------|


That's it! Pretty straightforward, let me know if you have any questions! Please rate!
Tap to rate this tab
 
# A B C D E F G H I J K L M N O P Q R S T U V W X Y Z