Song name
# A B C D E F G H I J K L M N O P Q R S T U V W X Y Z

Graham Colton - Since You Broke It tab

 Tabbed By: Loryleen
 E-mail: DitchRuxton47@aol.com
 Tuning: EADGBE

 This is a really great song from Graham Colton's new album Drive:)

 SOLO:

 e|---------|---------|---------------|-------------------------------|
 B|-0---3-0-|-0-------|-0---3slide7~~-|-7-10-7~~----------------------|
 G|---0-----|---0-----|---0-----------|-------------------------------|
 D|---------|-----2~~-|---------------|-------------------------------|
 A|---------|---------|---------------|-------------------------------|
 E|---------|---------|---------------|-------------------------------|

 ENDING SOLO:

 e|----------------------------|--------------------------------------|
 B|-7-8-7-8-7-8-10-8-7-8-7-8~~-|-0---3slide7~~------------------------|
 G|----------------------------|---0----------------------------------|
 D|----------------------------|--------------------------------------|
 A|----------------------------|--------------------------------------|
 E|----------------------------|--------------------------------------|

 CONTINUED.....

 e|----------------------------|--------------------------------------|
 B|-7-8-7-8-7-8-10-8-7-8-7-8~~-|-0------------------------------------|
 G|----------------------------|---0----------------------------------|
 D|----------------------------|-----2~~------------------------------|
 A|----------------------------|--------------------------------------|
 E|----------------------------|--------------------------------------|

 THIS IS MY FIRST TAB EVER AND IT SOUNDS PRETTY ACCURATE TO ME, SO I HOPE
 YOU LIKE IT!! DON'T FORGET TO RATE IT!!
Tap to rate this tab
# A B C D E F G H I J K L M N O P Q R S T U V W X Y Z