Song name
# A B C D E F G H I J K L M N O P Q R S T U V W X Y Z

Graham Coxon - Oochy Woochy tab

-------------------------------------------------------------------------------
			     OOCHY WOOCHY - Graham Coxon
-------------------------------------------------------------------------------
Tabbed by: TomleHat
Email: thom25j@yahoo.co.uk

Tuning: Standard

'Bout time someone tabbed some more Coxon, he's got 6 solo albums for gods sake! albeit 
is a mixture of sax, guitar and bass, you can play it all on one guitar.

e|-------------------------------------------------------------------|
B|-------------------------------------------------------------------|
G|--------------------------------------12\---0-----12------------12-|
D|-------------------------------------------------------12-10-12----|
A|------------8-----10bp8---------8----------------------------------|
E|-6-8-6-8-10---10--------10-8-10------------------------------------|

e|-----------------------------------------------|
B|-----------------------------------------------|
G|-----------------------------------------------|
D|-12---12---12-12--12--12--12--13--13-13-13--13-|
A|-12---12---12-12--12--12--12--12--12-12-12--12-|
E|-10---10---10-10--10--10--10--11--11-11-11--11-|

e|--------------------------------------------|
B|-10-----12--10---10--12------10-------------|
G|---------------------------------12---9-----|
D|-----------------------------------------12-|
A|--------------------------------------------|
E|--------------------------------------------|

e|----------------------------------------------------------------|
B|----------------------------------------------------------------|
G|----------------------------------------------------------------|
D|----------------------------------------------------------------|
A|---------8-----8-8-------8-9-10-10-10-10---------------------10-|
E|-8-8-8-8------------8-8------------------10-----10-8-10-8-10----|

e|--------------------------------------------------------------------------------|
B|--------------------------------------------------------------------------------|
G|--------------------------------------------------------------------------------|
D|----10---10---10-------10---10---10--------12----12----12--------12----12----12-|
A|-8-----8----8-------8-----8----8-------10-----10----10-------10-----10----10----|
E|--------------------------------------------------------------------------------|


| \  slide down
| p  pull-off
| b  bend up one fret

===============================================================================
Tap to rate this tab
# A B C D E F G H I J K L M N O P Q R S T U V W X Y Z