Song name
# A B C D E F G H I J K L M N O P Q R S T U V W X Y Z

Graham Coxon - I Wish tab

Help us improve GuitareTab! Take a short survey!
tabbed by JIM (france)

/:slide down
\:slide up
p:pull off
h:hammer on
b:bend

it's a live version!!! LISTEN FOR RYTHME

intro x4

e--------------------------5--------------------------------------------|
b--55555h777p5x---5h777p5--x-5555555------------------------------------|
g--666666666665b--66666-6--6-6666666------------------------------------|
d--777777777777b--77777-7--7-7777777------------------------------------|
a-----------------------------------------------------------------------|
E-----------------------------------------------------------------------|

verse

e------------------------------------------------------------------------|
b--55555-\-33333----------55555/6/7/8--\2222-----------------------------|
g--66666-\-44444----------66666/7/8/9--\3333-----------------------------|
d--77777-\-55555--22--22--77777/8/9/10-\4444--2222-----------------------|
a----------------22--33-----------------------3333-----------------------|
E------------------------------------------------------------------------|
                          ------- x2 ------------------------------------|

intro

verse

intro

verse

intro

verse


bridge
with disto/fuzz

e--555555555----------------------------------------------------------|
b--555555555----------------------------------------------------------|
g--666666666----------------------------------------------------------|
d--777777777----------------------------------------------------------|
a--777777777----------------------------------------------------------|
E--555555555----------------------------------------------------------|

--during the bride play a little solo (improvise) on A

verse

bridge

verse

bridge

verse

bridge

verse

bridge

verse

bridge

verse

bridge


ENJOY!!!
Related for I Wish tab