Song name
# A B C D E F G H I J K L M N O P Q R S T U V W X Y Z

Graham Coxon - Bitter Tears tab

riff
e---2--2-2--2-------------------------------------------------|
B---3--3-2--2--3---------------------------2--2--2-------3-3--|
G-----------------2--0--2h4-2-0----------3--3--3--3-----4-4-4--|
D---0--0-0--0-------------------2/4b-4--------------5---------|
A--------------------------------------------------------------|
E--------------------------------------------------------------|


riff
Why no pills today? Bitter tears Seven AM,
and wasting away, bitter tears
Why no knock on my door? Bitter tears
Why did I come here for? Bitter tears

riff
How much do you need? Bitter tears
Give me love and see me bleed, bitter tears
Please don't hurt me tonight, bitter tears
I've lost the will to fight, bitter tears

F   G   A

Bb       F                  c          G
It's our intimacy that I'm missing you see

Bb         F             A
When there's no-one around

Bb        F                 c         G
Our intimacy is what's missing for me

Bb  F   A   Bb

riff
If I go then I'll go clean, bitter tears
Making love in silent dreams, bitter tears
Burn the books of history, bitter tears
Build a home for you and me, bitter tears

solo
e------------------------------------------------|
B-----------------------7--7787--5/8 vibrato--|
G7--7--5--4h5p4--0------------------------------|
D--------------------7---------------------------|
A------------------------------------------------|
E------------------------------------------------|
Tap to rate this tab
 
# A B C D E F G H I J K L M N O P Q R S T U V W X Y Z