Song name
# A B C D E F G H I J K L M N O P Q R S T U V W X Y Z

Graham Coxon - Thats When I Reach For My Revolver tab

Tabbed By: Saviano Perry (savianoperry)
smashingpumpkins11@gmail.com

Thatís When I Reach For My Revolver
Graham Coxon
The Golden D

Intro:

e|---------------------| 
B|---------------------|
G|---------------------|
D|-------2------2------|
A|-----2------2--------|
E|--00-----0-----------|

Verse:

   E
e|------0----0~---------0------0--| 
B|------0----0~---------1------1--|
G|------1----1~-x5------2------2--|
D|--222-2-22-2~-----222-2--222-2--|
A|--222---22--------000----000----|
E|--000---00--------000----000----|

Pre-Chorus:

e|------------------------| 
B|------------------------|
G|------------------------|
D|--2222222222222222------|
A|--2222222222222222------|
E|--0000000000000000------|
PM__________

Chorus:

e|-------------------------------------| 
B|-------------------------------------|
G|--5555555-----------777777777-8------|
D|--5555555-555555555-777777777-8------|
A|--3333333-555555555-555555555-6------|
E|----------333333333------------------|

Solo:
e|-----------------------| 
B|-----------------------|
G|--8-6-8-6-86-8-9-6-----|
D|-----------------------|
A|-----------------------|
E|-----------------------|

Verse:

e|------------------------| 
B|------------------------|
G|------------------------|
D|--77777777777777777777--|
A|--77777777777777777777--|
E|--55555555555555555555--|
PM______________________
Tap to rate this tab
 
# A B C D E F G H I J K L M N O P Q R S T U V W X Y Z