Song name
# A B C D E F G H I J K L M N O P Q R S T U V W X Y Z

Graham Coxon - Ooh Yeh Yeh tab

Tabbed By: Saviano Perry
smashingpumpkins11@gmail.com

Graham Coxon
Ooh, Yeh Yeh
A+E

There is a tab for the whole song (except solo) on Veikko's Blur Page (vblurpage.com)


Guitar 1:
e|---------------------12b-12-12-12-12b----------------------------------8b-|
B|--------------------------------------------------------------------------|
G|-9999999999999999-7b------------------9b-7b-3b-77777p5--77b7p5--777b-5b---|
D|------------------------------------------------------7-------7---------5b|
A|--------------------------------------------------------------------------|
E|--------------------------------------------------------------------------|


e|------------------------------|
B|------------------------------|
G|-77777p5--7----5-7-88b-7p5----|
D|--------7---7b------------7v--|
A|------------------------------|
E|------------------------------|

Then:

Guitar 1:
e|--------|
B|--------|
G|--------| (Until Chorus)
D|--------|
A|-6h8888-|
E|--------|
Pm ______

Guitar 2:
e|--------------------|
B|--------------------|
G|--------------------|
D|-777-5-777----------| (Until Chorus)
A|----------5h7-5h7-0-|
E|--------------------|
Pm___________________
Tap to rate this tab
# A B C D E F G H I J K L M N O P Q R S T U V W X Y Z