Song name
# A B C D E F G H I J K L M N O P Q R S T U V W X Y Z

Graham Coxon - Seven Naked Valleys tab

Tabbed By: Saviano Perry
smashingpumpkins11@gmail.com

Seven Naked Valleys
Graham Coxon
A+E

Intro:
|--------------------------| |---|
|--------------------------| |---|
|--------------------------| |---|
|----------------12--------| |-7-|
|----------1212----121212--| |-7-|
|-101010-10----10----------| |-5-|
Pm...............

Verse:                                                  Seven naked valleys..
|------------------------------------------------------| |-------------|
|------------------------------------------------------| |-------------|
|------------------------------------------------------| |-------------| 
|------------------------------------------------------| |-5555-7777---|
|---------------10-----------------------10------------| |-5555-7777---|
|-10-101010-1010--101010-1010-101010-1010---888-888888-| |-3333-5555---|
Pm..........................................

Bridge:
|-----------------------------------------|
|-----------------------------------------|
|-----------------------------------------| 
|-11111111-99999999-----------------11-12-|
|-99999999-77777777-8-9-10-11-12-13-------|
|-----------------------------------------|

|----------------------------------------------------------------|
|----------------------------------------------------------------|
|----------------------------------------------------------------| 
|-11111111-99999999---------------------------------------11-12--|
|-99999999-77777777-8-9-10-11-12-11-10-9--8-9-10-11-12-13--------|
|----------------------------------------------------------------|
Tap to rate this tab
# A B C D E F G H I J K L M N O P Q R S T U V W X Y Z