Song name
# A B C D E F G H I J K L M N O P Q R S T U V W X Y Z

Graham Coxon - Just Be Mine chords

Highlighted       Show chord diagrams
Artist: Graham Coxon
Song: Just Be Mine
Album: The Kiss Of Morning (2002)
Tabbed by: Trifonas
E-mail: trifwnas@hotmail.gr

Tuning: Standard EADGBe (Low to High)

E  E7 E

E   E7 E      A
That's it, I gotta get out
  C                  E  E7 E
Before we fall out again
E  E7 E   A
You say, Go get a life
 C                       E  E7 E
Put down the knife, my friend
F          E
 Just be mine
F     G#    E
 Just be mine

E E7 E   A
Can  I sleep on the floor
   C              E  E7 E 
Or even the corridor?
E E7   E      A
Don't want to be on my own
    C                    E  E7 E
Or talk on the phone no more
F          E
 Just be mine
F     G#    E
 Just be mine

Solo

E  E7 E       A         
You  try the patience of saints
     C                   E  E7 E 
And that is just what I ain't
    E  E7 E   A 
So just stop wasting my time
     C                 E  E7 E
And catch me before I faint

F          E
 Just be mine
F     G#    E
 Just be mine
F          E
 Just be mine



Riffs and solo:

Riff E:(opening riff and the E in the verses)
e|-----------------|
B|-----------------|
G|---1--1-1-1--1---|
D|---2--2-2-0--2---|
A|---2--2-2-2--2---|
E|---0--0-0-0--0---|


Solo:
e|--------------------------------------|
B|--------------------------------------|
G|--4~--1~--2p1-------2p1---------------|
D|--------------4--2------4--2--4-4/6---|
A|--------------------------------------|
E|--------------------------------------|

e|--------------------------------------|
B|--------------------------------------|
G|--4~--1~--2p1-------2p1---------------|
D|--------------4--2------4--2--4-4/6---|
A|--------------------------------------|
E|--------------------------------------|

e|--------1~-0~------------------------------|
B|-----1~------------------------------------|
G|--2~------------2-/5--1~-------------------|
D|-----------------------------3--3~--3p2----|
A|-------------------------------------------|
E|-------------------------------------------|

Closing Riff:

e|--------------------------------|
B|--------------------------------|
G|--7h9-9-9-7h9-9-9--1-1-1--------|
D|--7h9-9-9-7h9-9-9--2-0-2--------|
A|--5h7-7-7-5h7-7-7--2-2-2--------|
E|--0---0-0-0---0-0--0-0-0--------|

  E7
E|-0-|
B|-0-|
G|-1-|
D|-0-|
A|-2-|
E|-0-|


Legend:

/   slide up
H   hammer-on
p   pull-off
~   vibrato
Tap to rate this tab
# A B C D E F G H I J K L M N O P Q R S T U V W X Y Z