Song name
# A B C D E F G H I J K L M N O P Q R S T U V W X Y Z

Graham Coxon - Freakin Out tab

tabbed by JIM (france)

s/slide
b/bend
p/pull off

Intro : listen for rythme
|--------------------------------------------------------------------|
|--5-5-5-5-5-5s4-4--2-2-2-2-2-2--4-4s5-------------------------------|
|--4-4-4-4-4-4-4-2--2-2-2-2-2-2--4-4-4-------------------------------|
|--2-2-2-2-2-2-2-2--2-2-2-2-2-2--2-2-2-------------------------------|
|--2-2-2-2-2-2-2-2---------------2-2-2-------------------------------|
|--------------------------------------------------------------------|

|--------------------------------------------------------------------|
|--------------------------------------------------------------------|
|--9-9-9-9-9-9-8-8--------------------9------------------------------|
|--9-9-9-9-9-9-9-9--7-7-7-7-7-7--9-9--9------------------------------|
|--7-7-7-7-7-7-7-7--7-7-7-7-7-7--9-9--7------------------------------|
|--7-7-7-7-7-7-7-7--5-5-5-5-5-5--7-7--7------------------------------|

|--------------------------------------------------------------------|
|--5-5-5-5-5-5s4-4--2-2-2-2-2-2--4-4s5-------------------------------|
|--4-4-4-4-4-4-4-2--2-2-2-2-2-2--4-4-4-------------------------------|
|--2-2-2-2-2-2-2-2--2-2-2-2-2-2--2-2-2-------------------------------|
|--2-2-2-2-2-2-2-2---------------2-2-2-------------------------------|
|--------------------------------------------------------------------|


Verse: listen for rythme
|--------------------------------------------------------------------|
|--5-5-5-5-5-5s4-4--2-2-2-2-2-2--4-4s5-------------------------------|
|--4-4-4-4-4-4-4-2--2-2-2-2-2-2--4-4-4-------- x2 -------------------|
|--2-2-2-2-2-2-2-2--2-2-2-2-2-2--2-2-2-------------------------------|
|--2-2-2-2-2-2-2-2---------------2-2-2-------------------------------|
|--------------------------------------------------------------------|

|--------------------------------------------------------------------|
|--------------------------------------------------------------------|
|--9-9-9-9-9-9-8-8--------------------9------------------------------|
|--9-9-9-9-9-9-9-9--7-7-7-7-7-7--9-9--9------------ x2 --------------|
|--7-7-7-7-7-7-7-7--7-7-7-7-7-7--9-9--7------------------------------|
|--7-7-7-7-7-7-7-7--5-5-5-5-5-5--7-7--7------------------------------|

|--------------------------------|
|----------------9---------------|
|---------999-11---9--7^-6-4-4---|
|--------------------------------|
|------------------------------7-|
|--------------------------------|


 Chorus :  listen for rythme
|---------------------------------------------------------------------------|
|---------------------------------------------------------------------------|
|-9---------------5--------9---------------5---8---9------------------------|
|-9---7---9---5---5---9----9---7---9---5---5---8---9------------------------|
|-7---7---9---5---3---9----7---7---9---5---3---6---7------------------------|
|-----5---7---3-------7--------5---7---3------------------------------------|

|------------------------------------------|
|------------------------------------------|
|-2p0-----2p0-----2p0-----2p0-------2------|
|-----2p0-----2p0-----2p0-----2p0---2-2222-|
|-----------------------------------0-2222-|
|-------------------------------------0000-|

play verse

|--------------------------------------------------------------------|
|--5-5-5-5-5-5s4-4--2-2-2-2-2-2--4-4s5-------------------------------|
|--4-4-4-4-4-4-4-2--2-2-2-2-2-2--4-4-4-------- x2 -------------------|
|--2-2-2-2-2-2-2-2--2-2-2-2-2-2--2-2-2-------------------------------|
|--2-2-2-2-2-2-2-2---------------2-2-2-------------------------------|
|--------------------------------------------------------------------|

|--------------------------------------------------------------------|
|--------------------------------------------------------------------|
|--9-9-9-9-9-9-8-8--------------------9------------------------------|
|--9-9-9-9-9-9-9-9--7-7-7-7-7-7--9-9--9------------ x2 --------------|
|--7-7-7-7-7-7-7-7--7-7-7-7-7-7--9-9--7------------------------------|
|--7-7-7-7-7-7-7-7--5-5-5-5-5-5--7-7--7------------------------------|

|--------------------------------|
|----------------9---------------|
|---------999-11---9--7^^^^^-----|
|--------------------------------|
|------------------------------7-|
|--------------------------------|


play chorus
|---------------------------------------------------------------------------|
|---------------------------------------------------------------------------|
|-9---------------5--------9---------------5---8---9------------------------|
|-9---7---9---5---5---9----9---7---9---5---5---8---9------------------------|
|-7---7---9---5---3---9----7---7---9---5---3---6---7------------------------|
|-----5---7---3-------7--------5---7---3------------------------------------|

|-------------------------------|
|-------------------------------|
|-2p0-----2p0-----2p0-----2^^^^-|
|-----2p0-----2p0-----2p0-------|
|-------------------------------|
|-------------------------------|

Solo chords
|-------------------------|
|-------------------------|
|-7-7-7-7-7-7-4-4-4-4-4-4-|
|-7-7-7-7-7-7-4-4-4-4-4-4-|
|-5-5-5-5-5-5-2-2-2-2-2-2-|
|-------------------------|

 Solo
|-----4^----------------10^-10^-10^-10^-10--12---10^-7^-----------------5^---|
|--------------9---9------------------------------------10-8--5h8-8--5h8-----|
|-7^--------9----9---9-------------------------------------------------------|
|---------7------------------------------------------------------------------|
|----------------------------------------------------------------------------|
|----------------------------------------------------------------------------|
        ^fast fill

verse
|---------------------------------------------------------------------------|
|---------------------------------------------------------------------------|
|-9---------------5--------9---------------5---8---9------------------------|
|-9---7---9---5---5---9----9---7---9---5---5---8---9------------------------|
|-7---7---9---5---3---9----7---7---9---5---3---6---7------------------------|
|-----5---7---3-------7--------5---7---3------------------------------------|

|------------------------------------------|
|------------------------------------------|
|-2p0-----2p0-----2p0-----2p0-------2------|
|-----2p0-----2p0-----2p0-----2p0---2-2222-|
|-----------------------------------0-2222-|
|-------------------------------------0000-|

chorus
|---------------------------------------------------------------------------|
|---------------------------------------------------------------------------|
|-9---------------5--------9---------------5---8---9------------------------|
|-9---7---9---5---5---9----9---7---9---5---5---8---9------------------------|
|-7---7---9---5---3---9----7---7---9---5---3---6---7------------------------|
|-----5---7---3-------7--------5---7---3------------------------------------|

|--------------------------------------------|
|--------------------------------------------|
|-2p0-----2p0-----2p0-----2p0-------2--------|
|-----2p0-----2p0-----2p0-----2p0---2-2222---|
|-----------------------------------0-2222---|
|-------------------------------------0000---|


Lyrics (www.saunalahti.fi):

Nothing to see
Nothing to hear
Nothing to be
Nothing to fear
Nothing to prove
Nothing to say
Nothing to loose
Nothing to gain
Nothing to feel
Nothing to hate
Nothing is real
It's all too late
What do you do when nothing's wrong?
Ain't got a clue
Ain't got no song

CHORUS:
Your foaming at the mouth
Your mad without a doubt
Cause I'm really freaking out
I'm going out of my mind
TV's got me going blind
And I'm really freaking out

Hey man you think you got it made
Cool beard you stick on your phantom face
Got on your aviators shades
Yeah man your looking really ace
So what the hell you doing here?
Filling the space between my ears
Why don't you all dissapear
Plus all your friends just way to dear

REPEAT CHORUS

Nothing to see
Nothing to hear
Nothing to be
Nothing to fear
Nothing to prove
Nothing to say
Lala la la lala la la

REPEAT CHORUS
Tap to rate this tab
# A B C D E F G H I J K L M N O P Q R S T U V W X Y Z