Song name
# A B C D E F G H I J K L M N O P Q R S T U V W X Y Z

Graham Coxon - Standing On My Own Again tab

Key:
~:let ring
.:mute
/:Slide up
x:scratch

Tuning: standard
TABBED BY JIM

Intro:
 scratch : listen for rythme
e|--xxxxx-----------------------------------------------------------------|
B|--xxxxx-----------------------------------------------------------------|
G|--xxxxx--7-7-7----------7-7-7------------7-7-7----------7-7-7-----------|
D|--xxxxx--7-7-7----------7-7-7------------7-7-7----------7-7-7-----------|continue
A|--xxxxx--5-5-5----------5-5-5------------5-5-5----------5-5-5-----------|
E|--xxxxx-----------------------------------------------------------------|
    Repeat(Optional)

Main Riff:
e|--5-5-5-5-5-------5-xxx-5-5----5-5-5-----------------------------------|
B|--8-8-8s7s8-------5-xxx-5-5----5-5-5-----------------------------------|
G|--7-7-7-7-7-------7-xxx-7-7----7-7-7-----------------------------------|
D|--5-5-5-5-5---x2--7-xxx-7-7----7-7-7-----------------------------------|
A|--5-5-5-5-5-------5-xxx-5-5----5-5-5-----------------------------------|
E|--5-5-5-5-5-------5-xxx-5-5----5-5-5-----------------------------------|
    Repeat all x7
Chourus:
e|--------------------------------------------------------------------------|
B|--------------------------------------------------------------------------|
G|--7-7-7-7-----------------------------------------------------------------|
D|--7-7-7-7--7--5-5-5-5-5-5-5-5--9-9-9-9--7--5-5-5-5-5-5-5-5--9-9-9-9-9-9-9-|
A|--5-5-5-5--7--5-5-5-5-5-5-5-5--9-9-9-9--7--5-5-5-5-5-5-5-5--9-9-9-9-9-9-9-|
E|-----------5--3-3-3-3-3-3-3-3--7-7-7-7--5--3-3-3-3-3-3-3-3--7-7-7-7-7-7-7-|

  -------------------------------------------------------------------------|
  -------------------------------------------------------------------------|
  -------------------------------------------------------------------------|
  --7-7-7-7-7-7--5-5-5-5-5-5--5-5-5-5-5--7-7-7-7-7-7-7-7-7-7-7-7-7-7-7-7---|
  --7-7-7-7-7-7--5-5-5-5-5-5--5-5-5-5-5--7-7-7-7-7-7-7-7-7-7-7-7-7-7-7-7---|
  --5-5-5-5-5-5--3-3-3-3-3-3--3-3-3-3-3--5-5-5-5-5-5-5-5-5-5-5-5-5-5-5-5---|

  -------------------------------------------------------------------------|
  -------------------------------------------------------------------------|
  -------------------------------------------------------------------------|
  ------------Back-To-Main-Riff--------------------------------------------|
  -------------------------------------------------------------------------|
  -------------------------------------------------------------------------|

  Main Riff:-
  Chourus:-

  Solo:
e|----------------------------------------------------------------|---------|
B|----------------------------------------------------------------|---------|
G|----------------------------------------------------------------|---------|
D|---------------------------------------------------4444-3333----|---------|
A|--------------------------------4-4-4-4-4-4-4-4-4-4---------4444|---------|
E|-2-2-2-2-2-2-2-2-2-2-2-2-2-2-2-2--------------------------------|---------|
      ...  Palm Muted Repeat x4

  e----------------seconde party---------------------------------------------|
  b--------------------------------------------------------------------------|
  g--19-19-19--18-18-18--16-16-16--14-14-14--11-11-11-12-12-12--14-14--16-16-|
  d--17-17-17--16-16-16--14-14-14--12-12-12--9--9--9--10-10-10--12-12--14-14-|
  a--17-17-17--16-16-16--14-14-14--12-12-12--9--9--9--10-10-10--12-12--14-14-|
  E--17-17-17--16-16-16--14-14-14--12-12-12--9--9--9--10-10-10--12-12--14-14-|

Repeat seconde party x3

play the chorus

play the main riff x2

play the solo second party x4 and finish by  g--19
                                             d--17
                                             a--17
                                             E--17
Tap to rate this tab
# A B C D E F G H I J K L M N O P Q R S T U V W X Y Z