Guitaretab - guitar tabs
Song name
# A B C D E F G H I J K L M N O P Q R S T U V W X Y Z

Graham Coxon - Gimme Some Love tab

-------------------------------------------------------------------------------
			     Gimme Some Love by Graham Coxon
-------------------------------------------------------------------------------
Tabbed by:Sam
Email:brotherhood_of_ted@hotmail.com

Tuning:standard

listen to the strumming pattern.

Intro
e|---------------------------|
B|-----5----5----5----5----5-|
G|---------------------------|x4
D|--77---77---77---77---77---|
A|---------------------------|
E|---------------------------|

[ Tab from: http://www.guitaretab.com/g/graham-coxon/71349.html ]
Verse and Chorus                     variation 1
e|--5--4--5--7----                   --5--7----|
B|--5--5--6--8----                   --6--8----|
G|--6--6--7--9----x3 then you go...  --7--9----|x2
D|--7--6--7--9----                   --7--9----|
A|--7--4--5--7----                   --5--7----|
E|--5-------------                   ----------|

Duing Verse one instead of the variation 1 do this...
e|--5--8----------------------------------5--8---7-|
B|--6--9----------------------------------6--9---8-|
G|--7--10---------------------------------7--10--9-|
D|--7--10--2-2-2-----2-2-2-2-2-2-2-2------7--10--9-|
A|--5--8---0-0-0-----0-0-0-0-3-0-0-0------5--8---7-|
E|-------------3---------3-------3-----------------|

Solo is improvised in A.  That'll do for now.

Cheers.  Sam
Related for Gimme Some Love tab
Gimme Some Love chords by Graham Coxon