Guitaretab - guitar tabs
Song name
# A B C D E F G H I J K L M N O P Q R S T U V W X Y Z

Graham Coxon - Jamie Thomas tab

Artist: GRAHAM COXON
Song: JAMIE THOMAS
Album: THE GOLDEN D
Tabbed By: indie nation
Tunning: DROPPED D TUNING


intro
e------------------------------|
b------------------------------|
g-7/9-9-9--7-9-9-9--7-9--------|
d-7/9-9-9--7-9-9-9--7-9--------|drums
a-5/7-7-7--5/7-7-7--5/7--------|
d------------------------------|

e------------------------------|
b------------------------------|
g-7/9-9-9--7-9-9-9--7-9--------|
d-7/9-9-9--7-9-9-9--7-9--------|drums
a-5/7-7-7--5/7-7-7--5/7--------|
d------------------------------|


e------------------------------------|
b-------------------------10b12--8---|
g-7/9-9-9--7-9-9-9--7-9--------------|
d-7/9-9-9--7-9-9-9--7-9--------------|
a-5/7-7-7--5/7-7-7--5/7--------------|
d------------------------------------|


e---------------------------|
b---------------------------|
g-7/9-9-9--7-9-9-9----------|
d-7/9-9-9--7-9-9-9----------|
a-5/7-7-7--5/7-7-7----------|
d---------------------------|


verse
=====

  E5            Bb5
|e------------------------------|
|B------------------------------|
|G------------------------------|
|D------------------------------|
|A-X-X-2-X-X-2-X-8-8-8-8--------|
|D-X-X-2-X-X-2-X-8-8-8-8--------|
   jamiethomasjamiethomas, etc.

E5   C5     E5   C5   E5   C5   D5/E5  D5/E5  D5/E5  D5/E5
singing------------------------)


e------------------------------|
b------------------------------|
g-7/9-9-9--7-9-9-9--7-9--------|
d-7/9-9-9--7-9-9-9--7-9--------|drums
a-5/7-7-7--5/7-7-7--5/7--------|
d------------------------------|

e------------------------------|
b------------------------------|
g-7/9-9-9--7-9-9-9--7-9--------|
d-7/9-9-9--7-9-9-9--7-9--------|drums
a-5/7-7-7--5/7-7-7--5/7--------|
d------------------------------|

SOLO
====

 N.C.
[ Tab from: http://www.guitaretab.com/g/graham-coxon/76698.html ]
e-10b11-------------------------------------------------------12b13r12vvv--|
b-------x----------x--------------------------------------15v--------------|
g---------3b4vvvv----3b4vvvv---0h7h9--11b12vvv-----12v---------------------|
d--------------------------------------------------------------------------|
a--------------------------------------------------------------------------|
d--------------------------------------------------------------------------|
repeat this bit once

  E5 D5 C5
e---------------------------|-------------------------------------|
b---------------------------|-------------------------------------|
g-9--9-9-12--9--12-9-12-7-9-|-9-9-12-9--12-9--12-14--14b16r14---9-|
d-9--9---12-----------------|-------------------------------------|
a---------------------------|-------------------------------------|
d---------------------------|-------------------------------------|

e--------------------|
b--7p4---------------|
g-------7b8r7--------|
d-------------5\2----|
a--------------------|
d--------------------|


E------------------------------|
B------------------------------|
G-7/9-9-9--7-9-9-9--7-9--------|
D-7/9-9-9--7-9-9-9--7-9--------|drums
A-5/7-7-7--5/7-7-7--5/7--------|
D------------------------------|

E------------------------------|
B------------------------------|
G-7/9-9-9--7-9-9-9--7-9--------|
d-7/9-9-9--7-9-9-9--7-9--------|drums
a-5/7-7-7--5/7-7-7--5/7--------|
D------------------------------|


e------------------------------------|
b-------------------------10b12--8---|
g-7/9-9-9--7-9-9-9--7-9--------------|
d-7/9-9-9--7-9-9-9--7-9--------------|
a-5/7-7-7--5/7-7-7--5/7--------------|
d------------------------------------|


e---------------------------|
b---------------------------|
g-7/9-9-9--7-9-9-9----------|
d-7/9-9-9--7-9-9-9----------|
a-5/7-7-7--5/7-7-7----------|
d---------------------------|


verse
=====

E5    Bb5    E5    Bb5
jamie thomas jamie thomas, etc.

fill
g----------------------|
d----------------------|
A-------------7p5------|
D---0h2--5--0-----8\7--|


E5   C5     E5   C5   E5   C5   D5/E5  D5/E5  D5/E5  D5/E5
singing------------------------)

E5   C5     E5   C5   E5   C5   D5/E5  D5/E5  D5/E5  D5/E5
singing------------------------)
Related for Jamie Thomas tab
Advertisement will be closed in 10 seconds